Song name
# A B C D E F G H I J K L M N O P Q R S T U V W X Y Z

Superchunk - Good Dreams tab

-----------------------------------------------------------------------------
			     GOOD DREAMS - Superchunk
-----------------------------------------------------------------------------
Song: Good Dreams
Album: Come Pick Me Up
Artist: Superchunk

Tabbed by: Ryan Little
Email: rdlittle25@gmail.com

Tuning: E standard

Notes:
1) The number in parentheses next to each part is how many times it should be repeated
2) Superchunk has two guitarists, so it won't sound as 'full' when you play it by 
Jim Wilbur (rhythm guitarist) is just playing chords behind Mac McCaughan (lead guitarist) 
which is what I've tabbed.

Intro/Riff A (2):

e|-------------------------------------------------------------|
B|-------------------------------------------------------------|
G|-----8h9--8h9-9----8h9--8h9-9----8h9s11s9p8------------------|
D|---------------------------------------------11-11-11-11-9-9-|
A|---------------------------------------------11-11-11-11-9-9-|
E|--7-----7--------5-----5-------7-------------9--9--9--9--7-7-|

Verse 1:

sometimes, sometimes when I'm out
B5                   A5
like a lion on the floor on the couch
B5                A5
i can feel the world slipping
B5             A5
like the tossing of all the ships shipping
B5                      A5

Chorus A/Riff A (2):

               "i've got a mind that races, through the dark..."


e|-------------------------------------------------------------|
B|-------------------------------------------------------------|
G|-----8h9--8h9-9----8h9--8h9-9----8h9s11s9p8------------------|
D|---------------------------------------------11-11-11-11-9-9-|
A|---------------------------------------------11-11-11-11-9-9-|
E|--7-----7--------5-----5-------7-------------9--9--9--9--7-7-|

                 "...i've got a mind that races"


e|-------------------------------------------------------------|
B|-------------------------------------------------------------|
G|-----8h9--8h9-9----8h9--8h9-9----8h9s11s9p8------------------|
D|---------------------------------------------11-11-11-11-9-9-|
A|---------------------------------------------11-11-11-11-9-9-|
E|--7-----7--------5-----5-------7-------------9--9--9--9--7-7-|


Riff B:
e|--------------------------------------------|
B|--------------------------------------------|
G|--6-6-6-6-4-4-------------------------------|
D|--6-6-6-6-4-4---6-6-6-6-4-4-----6-6-6-6-4-4-|
A|--4-4-4-4-2-2---6-6-6-6-4-4-----6-6-6-6-4-4-|
E|----------------4-4-4-4-2-2-----4-4-4-4-2-2-|


Chorus B/Riff C (3):

"hold me all night, give me good dreams..."
e|--------------------------------------------|
B|--------------------------------------------|
G|------4-4-----------------------------------|
D|--2-2-4-4---6-6-6-6-4-4--2-2---6-6-6-6-4-4--|
A|--2-2-2-2---6-6-6-6-4-4--2-2---6-6-6-6-4-4--|
E|--0-0-------4-4-4-4-2-2--0-0---4-4-4-4-2-2--|

"carry on tides, cause you know no extremes..."
e|--------------------------------------------|
B|--------------------------------------------|
G|------4-4-----------------------------------|
D|--2-2-4-4---6-6-6-6-4-4--2-2---6-6-6-6-4-4--|
A|--2-2-2-2---6-6-6-6-4-4--2-2---6-6-6-6-4-4--|
E|--0-0-------4-4-4-4-2-2--0-0---4-4-4-4-2-2--|

"hold me all night, give me good dreams..."
e|-------------------------------------|
B|-------------------------------------|
G|------4-4----------------------------|
D|--2-2-4-4---6-6-6-6-4-4--2--2--2--2--|
A|--2-2-2-2---6-6-6-6-4-4--2--2--2--2--|
E|--0-0-------4-4-4-4-2-2--0--0--0--0--|

Riff A (2):


e|-------------------------------------------------------------|
B|-------------------------------------------------------------|
G|-----8h9--8h9-9----8h9--8h9-9----8h9s11s9p8------------------|
D|---------------------------------------------11-11-11-11-9-9-|
A|---------------------------------------------11-11-11-11-9-9-|
E|--7-----7--------5-----5-------7-------------9--9--9--9--7-7-|


Verse 2:

by the green light of the digital clock
B5                        A5
sound asleep, but the bed still spins and rocks
B5                        A5
turnin over on my side, listen
B5               A5
can you hear the sheets rippin
B5               A5

Chorus A/Riff A (2):

               "i've got a mind that races, through the dark..."


e|-------------------------------------------------------------|
B|-------------------------------------------------------------|
G|-----8h9--8h9-9----8h9--8h9-9----8h9s11s9p8------------------|
D|---------------------------------------------11-11-11-11-9-9-|
A|---------------------------------------------11-11-11-11-9-9-|
E|--7-----7--------5-----5-------7-------------9--9--9--9--7-7-|

		     "...i've got a mind that races"

e|-------------------------------------------------------------|
B|-------------------------------------------------------------|
G|-----8h9--8h9-9----8h9--8h9-9----8h9s11s9p8------------------|
D|---------------------------------------------11-11-11-11-9-9-|
A|---------------------------------------------11-11-11-11-9-9-|
E|--7-----7--------5-----5-------7-------------9--9--9--9--7-7-|


Riff B:
e|--------------------------------------------|
B|--------------------------------------------|
G|--6-6-6-6-4-4-------------------------------|
D|--6-6-6-6-4-4---6-6-6-6-4-4-----6-6-6-6-4-4-|
A|--4-4-4-4-2-2---6-6-6-6-4-4-----6-6-6-6-4-4-|
E|----------------4-4-4-4-2-2-----4-4-4-4-2-2-|


Chorus B/Riff C (3):

"hold me all night, give me good dreams..."
e|--------------------------------------------|
B|--------------------------------------------|
G|------4-4-----------------------------------|
D|--2-2-4-4---6-6-6-6-4-4--2-2---6-6-6-6-4-4--|
A|--2-2-2-2---6-6-6-6-4-4--2-2---6-6-6-6-4-4--|
E|--0-0-------4-4-4-4-2-2--0-0---4-4-4-4-2-2--|

"carry on tides, cause you know no extremes..."
e|--------------------------------------------|
B|--------------------------------------------|
G|------4-4-----------------------------------|
D|--2-2-4-4---6-6-6-6-4-4--2-2---6-6-6-6-4-4--|
A|--2-2-2-2---6-6-6-6-4-4--2-2---6-6-6-6-4-4--|
E|--0-0-------4-4-4-4-2-2--0-0---4-4-4-4-2-2--|

"hold me all night, give me good dreams..."
e|-------------------------------------|
B|-------------------------------------|
G|------4-4----------------------------|
D|--2-2-4-4---6-6-6-6-4-4--2--2--2--2--|
A|--2-2-2-2---6-6-6-6-4-4--2--2--2--2--|
E|--0-0-------4-4-4-4-2-2--0--0--0--0--|

Bridge (2):

e|-----------------------|------------|
B|-----------------------|------------|
G|-----------------------|------------|
D|-----------------------|------------|
A|-----------------------|------------|
E|--7-----4-5-4---2-4-2--|--7---9---5-|

Riff A (2):


e|-------------------------------------------------------------|
B|-------------------------------------------------------------|
G|-----8h9--8h9-9----8h9--8h9-9----8h9s11s9p8------------------|
D|---------------------------------------------11-11-11-11-9-9-|
A|---------------------------------------------11-11-11-11-9-9-|
E|--7-----7--------5-----5-------7-------------9--9--9--9--7-7-|


Solo:

Time to improvise. Sorry. :D

Riff A (3):


e|-------------------------------------------------------------|
B|-------------------------------------------------------------|
G|-----8h9--8h9-9----8h9--8h9-9----8h9s11s9p8------------------|
D|---------------------------------------------11-11-11-11-9-9-|
A|---------------------------------------------11-11-11-11-9-9-|
E|--7-----7--------5-----5-------7-------------9--9--9--9--7-7-|

End:

e|----------------------|--------------------|----|
B|----------------------|--------------------|----|
G|----------------------|--------------------|----|
D|----11-11-11-11-9-9---|----11-11-11-11-9-9-|--9-|
A|----11-11-11-11-9-9---|----11-11-11-11-9-9-|--7-|
E|----9--9--9--9--7-7---|----9--9--9--9--7-7-|--7-|
Tap to rate this tab
 
# A B C D E F G H I J K L M N O P Q R S T U V W X Y Z