Superchunk - Precision Auto tab

Artist: Superchunk
Song: Precision Auto

First heard this song in an old BMX video called 
Base Brooklyn - Neighborhood Superheroes.

Intro

e| |-----------|
B| |-----------|
G| |--6---5----|
D| |--6---5----|
A| |--4---3----|
E| |-----------|

Verse

e| |------------------------------------------------|
B| |------------------------------------------------|
G| |--6-------9-------------------------------------|
D| |--6---9---9---10--------------------------------|
A| |--4---9---7---10--------------------------------|
E| |------7-------8---------------------------------|

Verse Riff

e| |------------------------------------------------|
B| |------------------------------------------------|
G| |------------------------------------------------|
D| |----5-6-5----5-6-5-----5-6-5----5-6-5-----------|
A| |--4------------------7--------------------------|
E| |-----------7------------------8-----------------|


Chorus

e| |------------------------------------------------|
B| |------------------------------------------------|
G| |--9-------11--13---9----11--13--14--16----------|
D| |------------------------------------------------|
A| |--7-------9---11---7----9---11--12--14----------|
E| |------------------------------------------------|


Breakdown

e| |------------------------------------------------|
B| |------------------------------------------------|
G| |------------------------------------------------|
D| |--4------7------2-------4------7------9---------|
A| |--4------7------2-------4------7------9---------|
E| |--2------5------0-------2------5------7---------|

e| |-----------------------------------------------------|
B| |-----------------------------------------------------|
G| |-----------------------------------------------------|
D| |--6565656565656565-(Play until you get a headache)---|
A| |-----------------------------------------------------|
E| |-----------------------------------------------------|
Tap to rate this tab
 
# A B C D E F G H I J K L M N O P Q R S T U V W X Y Z