Song name
# A B C D E F G H I J K L M N O P Q R S T U V W X Y Z

Superchunk - Seed Toss tab

Seed Toss by Superchunk from No Pocky For Kitty

tabbed / chorded by Dr. Good

Not checked very carefully for accuracy but it sounds about right.

Intro / Verse Riff 

(guitar)
e|-------------------------|---------------------------|
b|-----5-----5---5---5---5-|-----5-----5---5---5---5---|
g|-------------------------|---------------------------|
d|-3-3---3-3---3---3---3---|---------------------------|
a|-------------------------|-3-3---3-3---3---3---3-----|
E|-------------------------|---------------------------|

while bass plays this:
   F           G             C           B

If you don't have a bass and want to do it on a solo guitar, you could play
this:

(guitar)
e|-------------------------|---------------------------|
b|-----5-----5---5---5---5-|-----5-----5---5---5---5---|
g|-------------------------|---------------------------|
d|-3-3---3-3---5---5---5---|---------------------------|
a|-------------------------|-3-3---3-3---2---2---2-----|
E|-------------------------|---------------------------|

  
Chorus Progression

A       F       Bb      F       C       D  C

Under the solo, play the verse chords. I think.

Hooray for laziness
Tap to rate this tab
# A B C D E F G H I J K L M N O P Q R S T U V W X Y Z