Song name
# A B C D E F G H I J K L M N O P Q R S T U V W X Y Z

Superdrag - Aspartame tab

ASPARTAME
Tunning:Normal
into;
E|-----------------------------------------------------------------------|
B|--------------------------------------------7--7--5--5--5--5--5--5--5--|
G|--------7--7--5--5--------9--9--7--7--5--5-----------------------------|
D|--5--5--------------8--8-----------------------------------------------|
A|-----------------------------------------------------------------------|
E|-----------------------------------------------------------------------|

E|---------------------------------------------------------------------------|
B|-----------------------------------------------7--7------------------------|
G|-----------7--7--5--5--------9--9--7--7--5--5--------4--4--4--4--4--4--4-4-|
D|--5--5--5--------------8--8------------------------------------------------|
A|---------------------------------------------------------------------------|
E|---------------------------------------------------------------------------|
1st verse

E|--------------------------------------------------|
B|------- ------------------------------------------|
G|------- 7777777777777-----------------------------|
D|--5-5B--5555555555555-11-11-11-11-11-11-11-11-11--|
A|--5-5B----------------9--9--9--9--9--9--9--99--9-|
E|--------------------------------------------------|
Tap to rate this tab
# A B C D E F G H I J K L M N O P Q R S T U V W X Y Z