Song name
# A B C D E F G H I J K L M N O P Q R S T U V W X Y Z

Superfine - Already Met You tab

                              Superfine
                 http://www.superfineband.com/index.htm
                           Already Met You
tabbed by Ammanas
Hey guys and girls, Buffy fans of all ages. 
I heard this song years ago on Buffy and recently re-discovered it on the
soundtrack and was disappointed at the lack of comprehensive tabs,
so I have worked off the rough one i found to tab this out. Enjoy

Legend:
h  Hammer on
\  slide up
X  scratch
b  bend

Tuning  step down
Chords:
   C/G    F/G     G     F     C     C/F      E5     A#   D
eb---------------------------------------------------6-------|
Bb---------------------------------------------------6----7--|
Gb----0-------0----12-----10---9-----10-------9------7----7--|
Db-9h-10---9h-10---12-----10---10----9--------9------8----7--|
Ab----10------8----10-----8----10----10-------7------8----5--|
Eb----8------------------------8-----8--------0------6-------|

Riff 1: Before Chorus
eb---------------------------------------|
Bb---8~8-8---10~10-10~8~8-8---10~10-10---|
Gb---0-0-0---0--0--0--0-0-0---0--0--0----|
Db---9-9-9---9--9--9--9-9-9---9--9--9----|
Ab---101010--10-10-10-101010--10-10-10---|
Eb---------------------------------------|

Riff 2: Played after chorus and between repeated chorus       
eb---------------------------|
Bb---------------------------| 
Gb---10~-10~-10~-10~~\9------|
Db---10~-10~-10~-10~~\9------|
Ab---------------------------|
Eb---------------------------|

Intro:
C/G (2 bars) F/G (1 bar) Riff 1

Verse 1:
C/G
The First dates the worst date, its too hard to know just what to do.
F/G                                                     C/G
I take you to dinner you dont eat you just play with you food,
C/G                                                     F/G
Then theres something familiar, about every word that you say,
*Riff 1*                                        G       F
Its hard to be-lieve, this happened a-again!

Chorus:
F       C        C/F
I already met you,
        C        C/F
I already met you,
                   E5
Youre like my last girlfriend, the Ex,
        F           G          C   *Riff 2*
And the girlfriend I had before her!

Verse 2:
C/G
I take you to my apartment in Venice just south of Beirut,
F/G                                                     C/G
You tell me youre bored and you dont like the colour of my shoes,
C/G                                                     F/G
And the picture gets clearer, with every word you say,
*Riff 1*                                G       (no F)
Its hard to be-lieve, this happened a-again!
Chorus:
C       C        C/F
I already met you,
        C        C/F
I already met you,
                   E5
Youre like my last girlfriend, the Ex,
        F           G          C   *Riff 2*
And the girlfriend I had before her!
            C           C/F
Theres no need to up-set you,
            C       C/F
But I already met you,
                    E5
Youre like my last Girlfriend, the ex,
        F           G           *Riff3* x2 
And the girlfriend I had before her!

Riff 3 (heavy Distortion)
    A#
eb|-6--x-x-x--6--x-x-x--6--x-x-x--------------|
Bb|-6--x-x-x--6--x-x-x--6--x-x-x-7-7-7--~~~~~~|
Gb|-7~~x~x-x~~7~~x~x-x~~7~~x~x-x-7-7-7--------|
Db|-8--x-x-x--8--x-x-x--8--x-x-x-7-7-7--------|
Ab|-8--x-x-x--8--x-x-x--8--x-x-x-5-5-5--------|
Eb|-6--x-x-x--6--x-x-x--6--x-x-x--------------|

Bridge:
*Riff3* x2
She takes your kids, and a house all alone, all you drew
                *Riff4*
And sweet uncle loves.

(im not too sure on the strumming in the bridge, and the lyrics are hard to catch)

Riff 4 (heavy Distortion)
eb|---------------------------|
Bb|-------------10b12~~~~~~~--|
Gb|-10b11~~~-8b9~~~~----------|
Db|---------------------------|
Ab|---------------------------|
Eb|---------------------------|


Verse 3:
(silence)
My dad says youre different,
C/F
Youre the one with whom I should grow old.
F/G                                                     C/G
Yeah thats not too convincing while yelling at your dad on my phone,
C/G                                                     F/G
So I stare out the window, and I find me a smile,
*Riff 1*                                        G       F
Cause I still be-lieve, it gets better than this!!

Chorus:
C       C        C/F
I already met you,
        C        C/F
I already met you,
                   E5
Youre like my last girlfriend, the Ex,
        F           G          C   *Riff 2*
And the girlfriend I had before her!
            C           C/F
Theres no need to up-set you,
            C       C/F
But I already met you,
                    E5             
Youre like my last Girlfriend, the ex,
        F           G           C   *Riff 2*
And the girlfriend I had before her!
                    E5             
Youre like my last Girlfriend, the ex,
        F           G           C
And the girlfriend I had before her!
        F           G           C
And the girlfriend I had before her!
        F           G           C
And the girlfriend I had before her!
        F           G           C
And the girlfriend I had before that!
Tap to rate this tab
# A B C D E F G H I J K L M N O P Q R S T U V W X Y Z