Song name
# A B C D E F G H I J K L M N O P Q R S T U V W X Y Z

Superfly - Runaway tab

D TUNING

E------------------------------7------
B---------------------------5---------
G------------------------4------------
D---0---0---0---0---------------------
A---0---5---5---7---------------------
D---0---4---5---7---------------------

BRIDGE

E-------------------------------------
B-------------------------------------
G-------------------------------------
D---9---7---5---0---------------------                               
A---9---7---5---0---------------------
D---9---7---5---0---------------------
Tap to rate this tab
# A B C D E F G H I J K L M N O P Q R S T U V W X Y Z