Song name
# A B C D E F G H I J K L M N O P Q R S T U V W X Y Z

Superfly - Anytime And Anywhere tab

THIS IS MAINLY IT1

E---------------------------------------------
B---------------------------------------------
G---------------------------------------------
D---------6-----------------------------------
A---------4---6--------10-------4-------------
E-------------4--------8--------2-------------

Pre-chorus
E---------------------------------------------
B---------------------------------------------
G---------------------------------------------
D------6--------------------------------------
A------4---6--------10----------4-------------
E----------4--------8-----------2-------------
Tap to rate this tab
 
# A B C D E F G H I J K L M N O P Q R S T U V W X Y Z