Song name
# A B C D E F G H I J K L M N O P Q R S T U V W X Y Z

Supergrass - G-song tab

Artist-Supergrass
Song-G Song
Album-In It For the Money
Writer-Gaz
Tabbed by S. McNally


Fig1
Gm      Eb     F       Cm   Bb
-------------------1--------------|
-----3------8------1--3h4-4-4p3---|
-----3--8-8-8------2--3---3-3p3---|
-5-5-5--8-8-8--3-3-3--3h5-5-5p3---|
-5-5-5--6-6-6--3-3-3--------------|
-3-3-3---------1-1-1--------------|


Fig2
----------------------------------|
----------------------------------|
-----10-12---------9-12-----------|
-/12-------11--/10----------------|
------------------------10--------|
----------------------------------|


Fig3
-----------------------------------------|
-----------------------------------------|
-----------------------------------------|
---------7-----9b10b9---------7---5---5--|
-----7/9---7-10-----------7/9---7---7----|
-5-5------------------5-5----------------|

Variation on Fig3
----------------------------------------------|
----------------------------------------------|
----------------------------------------------|
----------9------11b12b11----------9---7---7--|
-----9/11---9-12--------------9/11---9---9----|
-7-7----------------------7-7-----------------|


Intro
(Fig1)  2x


Verse 1
(Fig1)
As I walk into the night,
I don't feel that my feet have touched the ground,

(Fig1)


Verse 2
(Fig1)
And I want to carry on,
But I can't see anyone who'd take the time,

(Fig1)


Chorus
(Fig2)
There may be troubles, in your mind,
     (Fig2)
Maybe tomorrow, could be fine


Verse 3
(Fig1)
I feel like going home,
But I don't know if I'm up or coming down,

(Fig1)


Verse 4
(Fig1)
And I feel there's something wrong,
But I know it's just the time it takes to climb,


Chorus
(Fig2)
There may be troubles in your mind,
      (Fig2)
Maybe tomorrow, you could be fine,


(Fig3)  (4x)


Solo (over Fig1)
                                          vib
-3-----------------------------------------------------------------|
-3-------------------------------6-8-6-8-6-8-6-8--8b10-8p6h8-------|
-5b--3h5-3h5-3h5-5-3---------5h7-----------------------------------|
---------------------5b-(3b)---------------------------------------|
-------------------------------------------------------------------|
-------------------------------------------------------------------|
           vib
-------------------------------|
-------------------------------|
-----3---3---------------------|
-3h5---5-----------------------|
-----------3---3h5-------------|
-------------------------------|


Chorus
             (Fig2)
There may be troubles in your mind,
        (Fig2)
Maybe tomorrow, you could be fine.


Outro
(Fig3) (4x)
(Fig3) variation (till fade)
Tap to rate this tab
# A B C D E F G H I J K L M N O P Q R S T U V W X Y Z