Song name
# A B C D E F G H I J K L M N O P Q R S T U V W X Y Z

Supergrass - Caught By The Fuzz Acoustic tab

     Intro
       
        A
  -------------| 
  -------------| 
  -------------| 
  ------7------| 
  ------7-x16--| 
  ------5------| 

                Verse

             A      D        C#       F#m   G#

       ----------------------------------------------|
       ----------------------------------------------|
       -------------77777777-66666666----------------|
       ----77777777-77777777-66666666-444xxx666------|
       ----77777777-55555555-44444444-444xxx666------|
       ----55555555-------------------222xxx444------|


     Chorus

          F#       G#    F#m E   D    D    E

  ------22222222-44444444-22-00 2222-2222-0000---------------|
  ------33333333-55555555-22-00 3333-3333-0000---------------|
  ------44444444-66666666-22-11 2222-2222-1111---------------|
  ------44444444-66666666-44-22 0000-0000-2222---------------|
  ------22222222-44444444-22-22-----------2222---------------|
  -----------------------------------------------------------|

      Bridge

          F#m      E         D         E   F    Bb  E
  --22222222222222-00-2222222222222222-00-1111------00--|
  --22222222222222-00-3333333333333333-00-1111-3333-00--|
  --22222222222222-11-2222222222222222-11-2222-3333-11--|
  --44444444444444-22-0000000000000000-22-3333-3333-22--|
  --44444444444444-22------------------22------1111-22--|
  --22222222222222--------------------------------------|

    Outro (play slower)

     A        Amaj7
  ----00000000--000000000----|
  ----22222222--222222222----|
  ----22222222--111111111----|
  ----22222222--222222222----|
  ----00000000--000000000----|
  ---------------------------|

  Lyrics


  Caught by the fuzz
  Well I was
  Still on the buzz
  In the back of the van
  With my head in my hands
  It's like a bad dream
  I was only 15


  If only my brother could be here now
  He'd get me out and sort me out alright
  I knew I should have stayed at home tonight


  Locked in the cell
  Feeling unwell
  I talk to a man he said it's
  Better to tell
  Who sold you the blow
  Well it was no one I know
  If only you'd tell us we'd let you go
  We'll make it hard for you my son so tell us what you know
  We'll make you wish you'd stayed at home tonight

  oohh waaahh oohh waaah ooohh (and so on)

  Here comes my mum
  Well she knows what I've done
  Just tell them the truth
  You know where it's from
  You've blackened our name
  Well you should be ashamed
  If only you're father could be here now
  He'd break down and he'd throw you out for sure
  I never should have let you out tonight
Tap to rate this tab
# A B C D E F G H I J K L M N O P Q R S T U V W X Y Z