Song name
# A B C D E F G H I J K L M N O P Q R S T U V W X Y Z

Supergrass - Wait For The Sun tab

WAIT FOR THE SUN

Gtr I (D A D F A D)

  Q=112
 4/4
  Gtr I
|-------||----0-----0-----0-|---2-----2-----0-|--------------------|
|-------||o-----0-----0-----|-----0-----0-----|---2-----2-----2----|
|-------||--------0-----0---|-------0-----0---|-----0-----0--------|
|-------||------------------|-2---------------|--------------------|
|-------||o-----------------|-----------------|-2-----2-----2------|
|-0-3-2-||--0---------------|-----------------|--------------------|

|------------------|
|---1-----1-------o|
|-----0-----0------|
|------------------|
|-1-----1---------o|
|-------------3-2--|

Hoping a much better tabber can use this to get the rest, as I'm really struggling with this one.

Tap to rate this tab
# A B C D E F G H I J K L M N O P Q R S T U V W X Y Z