Song name
# A B C D E F G H I J K L M N O P Q R S T U V W X Y Z

Supergrass - Rebel In You tab

Supergrass - Rebel In You

I'm 98% sure it's right, if sometimes you don't find the rhythm listen to the song ;)

Intro X2 :

e|-----------------------------------|
b|-----------------------------------|
G|-/8-9~--4-5-7/12~--/8-9~--4-5-4----|
D|-------------------------------5~--|
A|-----------------------------------|
E|-----------------------------------|

Verse X2 :
      Am     G
e|--7777-5---3--3----------------------3---|
b|--5555-5---3--3----------------------3---|
G|--5555-5---4--4----------------------4---|
D|--7777(7)--5--5----------------------5---|
A|-----------------------------------------|
E|-----------------------------------------|
      Am     G
e|--7777-5---3--3----------------------3---3-|
b|--5555-5---3--3----------------------3---3-|
G|--5555-5---4--4----------------------4---4-|
D|--7777(7)--5--5----------------------5---5-|
A|-------------------------------------------|
E|-------------------------------------------|
    F
e|--3-1-3-1---------1---1---|
b|--1-1-1-1---------1---1---|
G|--2-2-2-2---------2---2---|
D|--3-3-3-3---------3---3---|
A|--------------------------|
E|--------------------------|

    First time
 |--------------|
 |  Em          |  C
e|--7-7-7--7---7---8-8--8--8---8-----|
B|--8-7-8--10--8---8-8--8--10--8-----|
G|--9-9-9--x---9---9-10-9--9---9-----|
D|--9-9-9--9---9--10-10-10-10--10----|
A|-----------------------------------|
E|-----------------------------------|
 |                                   |
 |-----------------------------------|
             Second time

Chorus :
    G       F       Em     Eb     D      C
e|--3-------1-------7----------------------------------------------|
B|--3-------1-------8----------------------------------------------|
G|--4-------2-------9-(x8)-8------7------5-5-5-5-5-5-5-5-5-5-5-5-5-|
D|--5-(x16)-3-(x16)-9------8-(x4)-7-(x4)-5-5-5-5-5-5-5-5-5-5-5-5-5-|
A|--5-------3-------7------6------5------3-3-3-3-3-3-3-3-3-3-3-3-3-|
E|--3-------1------------------------------------------------------|

Verse X2

Chorus

Solo :

e|-/12~-12~-10-------------------------------------------------------------|
B|------------12-10-12~--12-10-8-10-12~-----12-13-12-10-8-8h10~-10--8--8~--|
G|-------------------------------------------------------------------9-----|
D|-------------------------------------------------------------------------|
A|-------------------------------------------------------------------------|
E|-------------------------------------------------------------------------|

e|---------------------------------------------------------------|
B|-/13-13~--13/12~----12/10~----10/8~----8------8~--10b--8~-10~--|
G|----------------------------------------9-7-9--------9---------|
D|---------------------------------------------------------------|
A|---------------------------------------------------------------|
E|---------------------------------------------------------------|

e|--12~12~12~12~10--------------------------------------------------------15---15------|
B|----------------12-10-10h12~--12-10-8~--8-10~11~11~13~13~15~15~15~15~15b--15b--15b---|
G|-------------------------------------------------------------------------------------|
D|-------------------------------------------------------------------------------------|
A|-------------------------------------------------------------------------------------|
E|-------------------------------------------------------------------------------------|

Break (keyboard) (we can hear a guitar who plays a G chord ,a F chord ,an Em chord and a 
chord)

Final Chorus :
          x2
   |---------------|
   | G       F     |Em    Eb      D      C
e|--3-------1-------7----------------------------------------------|
B|--3-------1-------8----------------------------------------------|
G|--4-------2-------9-(x8)-8------7------5-5-5-5-5-5-5-5-5-5-5-5-5-|
D|--5-(x16)-3-(x16)-9------8-(x4)-7-(x4)-5-5-5-5-5-5-5-5-5-5-5-5-5-|
A|--5-------3-------7------6------5------3-3-3-3-3-3-3-3-3-3-3-3-3-|
E|--3-------1------------------------------------------------------|

Outro :

Play this until the end ;)

e|--7-7-7-7---7----8-8--8--8---8-------|
B|--8-7-8-10--8----8-8--8--10--8-------|
G|--7-7-7-7---7----9-10-9--9---9-------|
D|--9-9-9-9---9---10-10-10-10--10------|
A|-------------------------------------|
E|-------------------------------------|


Thanks you, bye :)
Tap to rate this tab
 
# A B C D E F G H I J K L M N O P Q R S T U V W X Y Z