Song name
# A B C D E F G H I J K L M N O P Q R S T U V W X Y Z

Supergrass - Moving tab

E -------------------------------------------------|
B -----------------------777b88-11-8-7-7b8-7-5-3---|
G 9-7---9-7b--9-7-5-4-4--------------------------5-|
D ---7-9-------------------------------------------|
A -------------------------------------------------|
E -------------------------------------------------|

E 12-10-------------------------------------------|
B -----12-10b-10-12-13-12-10----------------------|
G ---------------------------12-11-11b12-14-12-11-|
D ------------------------------------------------|
A ------------------------------------------------|
E ------------------------------------------------|

First ever tab, it's not perfect but that's the jist of it. Fantastic song and majorly 
they've split.
Tap to rate this tab
 
# A B C D E F G H I J K L M N O P Q R S T U V W X Y Z