Song name
# A B C D E F G H I J K L M N O P Q R S T U V W X Y Z

Supergrass - Coffee In The Pot tab

Song:    Coffee in the pot 
Artist:  Supergrass
Album:   Road To Rouen (2005) 


"Intro" (0:04)
e|--------------------------------|
b|--------------------------------|
g|-------12----17----20----22-----|
d|-------12----17----19----22-----|
a|-------10----15----21----20-----|
e|--------------------------------|


Verse (0:14)
e|-------------------------------------------|
b|-------------------------------------------|
g|-----12---17-------------20------22--------|
d|-----12---17---------19------19--22--------|
a|-----10---15-----21--------------20--------|
e|-------------------------------------------|


Chorus (0:25)       
e|----8-7-5---8-7-5---8-7-5--10------8-7-5---8-7-5---8-7-5-3---|
b|-------------------------------------------------------------|
g|-------------------------------------------------------------|
d|-------------------------------------------------------------|
a|-------------------------------------------------------------|
e|-------------------------------------------------------------|

e|--8-7-5---8-7-5---8-7-5--10-----8-7-5---8-7-5---8-7-5--10-8--|
b|-------------------------------------------------------------|
g|-------------------------------------------------------------|
d|-------------------------------------------------------------|
a|-------------------------------------------------------------|
e|-------------------------------------------------------------|


Verse x2 (0:35)
Chorus   (0:55)


Last Verse (1:06)
e|-------------------------------------------|
b|-------------------------------------------|
g|-----12---17-------------20------22--------|
d|-----12---17---------19------19--22--------|
a|-----10---15-----21--------------20--------|
e|-------------------------------------------|

e|----------------------------------------------|
b|----------------------------------------------|
g|-----12---17-------------20--------------21---|
d|-----12---17---------19------19------22-------|
a|-----10---15-----21--------------21-----------|
e|----------------------------------------------|


Chorus x2 (1:26)
End (1:46)


Nice song. Enjoy!
beranger80@hotmail.com
Tap to rate this tab
# A B C D E F G H I J K L M N O P Q R S T U V W X Y Z