Guitaretab - guitar tabs
Song name
# A B C D E F G H I J K L M N O P Q R S T U V W X Y Z

Supergrass - Strange Ones tab

CHORUS:

A                            C
There's a place where the strange ones go,
         F               E
Where nobody here could know,
A                         C
They look down from the clouds and smile at,
F              E
Everyone down below/
A                            C
There's a place where the strange ones go,
F                        E
Where nobody here could know,
A                            C
They look down from the underground,
    F               E
At everyone down below,

VERSE:


   Am          F         E         Am           F         E
E|-0--0------|-1--1----|-0--0----|-0--3b-0----|-1--1----|-0-0----|
B|-1----1----|-1----1--|-0----0--|-1-------1--|-1----1--|-0---0--|
G|-2------2--|-2-------|-1-------|-2----------|-2-------|-1------|
D|-2---------|-3-------|-2-------|-2----------|-3-------|-2------|
A|-0---------|-3-------|-2-------|-0----------|-3-------|-2------|
E|-----------|-1-------|-0-------|------------|-1-------|-2------|

         Am          F E
I wanna cry for you,
         Am          F E
I wanna die for you,
Am   F    E       Am
Everybody needs a home,
Am                           F E
Well, are you strange enough,
Am                       F E
Are you deranged enough,
Am    F      E       Am  F E
Every *ucker needs a home

CHORUS: again

VERSE: again
[ Tab from: http://www.guitaretab.com/s/supergrass/59998.html ]
BREAK:
    C#            C             B      Bb     Am
E|--9-------------8-------------7--7-7--6--6-6--5--|
B|--9-------------8-------------7--7-7--6--6-6--5--|
G|--10--11-11-10--9---10-10-9---8--8-8--7--7-7--5--|
D|--11--11-11-11--10--10-10-10--9-------8-------7--|
A|--11------------10------------9-------8-------7--|
E|--9-------------8-------------7-------6-------5--|

SOLO:

E|-------------------------------------------|
B|-10~--10\8---------------------------------|
G|-----------9\7-----------------------------|
D|---------------9-5\7~~--7--7\5-------------|
A|-------------------------------7-6\5-------|
E|-------------------------------------3\5---|

E|-------------------------------------------|
B|------------------------10-10-10-8---------|
G|-----------------------------------9-7-----|
D|--------------5-6-7~~------------------9-7-|
A|----------5-7------------------------------|
E|-5-5-5-7-----------------------------------|

E|-------------------------------------------|
B|-10~--10\8---------------------------------|
G|-----------9\7-----------------------------|
D|---------------9-5\7~~--7--7\5-------------|
A|-------------------------------7-6\5-------|
E|-------------------------------------3\5---|

E|------------------------------------------------------|
B|------------------------------------------------------|
G|-------------------7---7\\12--12\14b-14b-14b-14b-14b--|
D|--------------5-6-------------------------------------|
A|----------5-7-----------------------------------------|
E|-5-5-5--7---------------------------------------------|

CHORUS: again

ENDING:

E|--5-5-5-5---8--8--8--8---5-5-5-5---8--8--8--8---5--5--5--5-5-5---5---|
B|--5-5-5-5---8--8--8--8---5-5-5-5---8--8--8--8---5--5--5--5-5-5---5---|
G|--6-6-6-6---9--9--9--9---6-6-6-6---9--9--9--9---6--6--6--6-6-6---6---|
D|--7-7-7-7---10-10-10-10--7-7-7-7---10-10-10-10--7--7--7--7-7-7---7---|
A|--7-7-7-7---10-10-10-10--7-7-7-7---10-10-10-10--7--7--7--7-7-7---7---|
E|--5-5-5-5---8--8--8--8---5-5-5-5---8--8--8--8---5--5--5--5-5-5---5---|
Related for Strange Ones tab
Strange Ones chords by Supergrass