Song name
# A B C D E F G H I J K L M N O P Q R S T U V W X Y Z

Supergrass - Rush Hour Soul tab

Alright, here's what i think is right:

[--------------------------]
[-10-8--10-8-8-------------]
[------9-------------------]  x3
[----------------9-7-5-----]
[----------------------7-5-]
[--------------------------]

[------------7---7---7--7--7---]
[-10-8--10-8-10b-10b-10b10b10b-] 
[------9-----------------------]
[------------------------------]
[------------------------------]
[------------------------------]

the 10b's are full (meaning they make the sound of the 12th fret).

 
Tap to rate this tab
 
# A B C D E F G H I J K L M N O P Q R S T U V W X Y Z