Guitaretab - guitar tabs
Song name
# A B C D E F G H I J K L M N O P Q R S T U V W X Y Z

Superheist - Detonate tab

Detonate

S U P E R H E I S T

Tabbed By Aaron Bridgeman (rokken@sicness.net)


http://bogans.arecool.net

TUNING: (B E A D F# b) (or use a 7 string)

KEY:
pm = palm mute
h  = hammer on
p  = pull off

MAIN RIFF:
b |-------------------------------|
F#|-------------------------------|
D |-------------------------------|
A |-------------------------------|
E |-6--6-6-7-3--2---2-2-2-2-2-2-2-|
B |-4--4-4-5-1--0---0-0-0-0-0-0-0-|
pm                  . . . . . . .
[ Tab from: http://www.guitaretab.com/s/superheist/26499.html ]
Sometimes replace the palm mutes with
b |------------------------------|
F#|------------------------------|
D |------------------------------|
A |------------------------------|
E |-2--------2--------2--------2-|
B |-0--------0--------0--------0-|

VERSE:
b |-------------------------------|
F#|-------------------------------|
D |-------------------------------|
A |-------------------------------|
E |-------------------------------|
B |-0h1p0-0---0--0---0h1p0--0h1p0-|

BRIDGE:
b |-------------------------------|
F#|-------------------------------|
D |-------------------------------|
A |-------------------------------|
E |-------------------------------|
B |-0h1p0-0---0--0---0h1p0--0h1p3-|

That's it!
Related for Detonate tab
×
Detonate