Song name
# A B C D E F G H I J K L M N O P Q R S T U V W X Y Z

Superheist - Have Your Way tab

Have Your Way

S U P E R H E I S T

Tabbed By Aaron Bridgeman (rokken@sicness.net)


http://bogans.arecool.net

This is the main riff, and the chorus.
I'll figger the rest out later.

INTRO / VERSE:
e|-------------------------------------------------------------------->
B|-------------------------------------------------------------------->
G|-----------------------------6---------6-------6--------------6----->
D|-----6-----6-----7-----6-------------------------------6-----------6>
A|-0-0---0-0---0-0---0-0---0-0------0-0-----0-0-----0-0----0-0----0--->
E|-------------------------------------------------------------------->

<---------------------------------------------------------------|
<---------------------------------------------------------------|
<---------------------------------------------------------------|
<-----------------------------4------4-----4------4-----4-4-4-4-|
<-----4-----4-----5-----4-------------------------------4-4-4-4-|
<-2-2---2-2---2-2---2-2---2-2----2-2---2-2---2-2----2-2---------|

CHORUS:
e|-----------------------------------------------|
B|-----------------------------------------------|
G|-----------------------------------------------|
D|-5--5--5-5-5---------------7--7--7-7-7-6-7-6---|
A|-3--3--3-3-3--7--7--7-7-7--5--5--5-5-5-4-5-4-7-|
E|--------------5--5--5-5-5--------------------5-|

There's plenty more, some octave bits and such.
I may do it later but right now at least I did the cool
intro bit.
Tap to rate this tab
# A B C D E F G H I J K L M N O P Q R S T U V W X Y Z