Song name
# A B C D E F G H I J K L M N O P Q R S T U V W X Y Z

Superheist - Unlearn tab

Unlearn
S U P E R H E I S T
Tabbed by Aaron Bridgeman (rokken@sicness.net)

http://bogans.arecool.net

TUNING: Drop D down 2 1/2 steps (A E A D F# b)

INTRO:
b |-----------------|-------------------------------------|
F#|-----------------|-------------------------------------|
D |-----------------|-------------------------------------|
A |-----------------|-------------------------------------|
E |-----------------|-------------------------------------|
A |-0-0-0-2-2-3-3-3-|-0-0-2-2-3-3-5-5-5-0-0-2-2-3-3-6-6-6-|

INTRO 2:
b |-----------------|-------------------------------------|
F#|-----------------|-------------------------------------|
D |-----------------|-------------------------------------|
A |-----------------|-------------------------------------|
E |-0-0-0-2-2-3-3-3-|-0-0-2-2-3-3-5-5-5-0-0-2-2-3-3-6-6-6-|
A |-0-0-0-2-2-3-3-3-|-0-0-2-2-3-3-5-5-5-0-0-2-2-3-3-6-6-6-|

CHORUS:
b |---------------|
F#|---------------|
D |---------------|
A |---------------|
E |-0--2-3--0-2-3-|
A |-0--2-3--0-2-3-|
Tap to rate this tab
# A B C D E F G H I J K L M N O P Q R S T U V W X Y Z