Song name
# A B C D E F G H I J K L M N O P Q R S T U V W X Y Z

Superheist - Fightback tab

The Fightback
S U P E R H E I S T
Tabbed By Aaron Bridgeman (rokken@sicness.net)

http://bogans.arecool.net

TUNING: Drop D down 2 1/2 steps (A E A D F# b)

KEY:
pm. = palm mute
p   = pull-off
h   = hammer-on

RIFF:
b |-----------------------------|
F#|-----------------------------|
D |-----------------------------|
A |-----------------------------|
E |-----------------------------|
A |-8p7-5h7-0-5-0-5h7-7-7-0-5-0-|
pm          .   .         .   .

RIFF HEAVIER:
b |-----------------------------|
F#|-----------------------------|
D |-----------------------------|
A |-----------------------------|
E |-8p7-5h7---5---5h7-7-7---5---|
A |-8p7-5h7-0-5-0-5h7-7-7-0-5-0-|
pm          .   .         .   .

VERSE:
b |---------------------------------------------|
F#|---------------------------------------------|
D |---------------------------------------------|
A |---------------------------------------------|
E |-8p7-------5h7-------8p7-------5h7-7-5h7-7-8-|
A |-8p7-------5h7-------8p7-------5h7-7-5h7-7-8-|

CHORUS:
b |------------|
F#|------------|
D |------------|
A |-9----3-10--|
E |-9----3-10--|
A |-9----3-10--|

ROKKEN SONG FROM THE PRIZE RECRUIT!
Tap to rate this tab
 
# A B C D E F G H I J K L M N O P Q R S T U V W X Y Z