Song name
# A B C D E F G H I J K L M N O P Q R S T U V W X Y Z

Superheist - Two Faced Check Your Head Up tab

Help us improve GuitareTab! Take a short survey!
Two Faced (Check Your Head Up)
S U P E R H E I S T
Tabbed by Aaron Bridgeman (rokken@sicness.net)

http://bogans.arecool.net

Just got the guitar bits, can't get the keyboard lead bit right.

Drop D tuning "D A D G B e"

Main guitar part. Pretty simple...
e|---------------------------|
B|---------------------------|
G|---------------------------|
D|---------------------------|
A|-7------2--3-------0-------|
D|-7------2--3-------0-------|

"Here comes the rain" bit.
e|------------------------------------------------->
B|------------------------------------------------->
G|------------------------------------------------->
D|------------------------------------------------->
A|-3-3-3-3-3-3-3-3-3-3-3-3-3-3-3-3-5-5-5-5-5-5-5-5->
D|-3-3-3-3-3-3-3-3-3-3-3-3-3-3-3-3-5-5-5-5-5-5-5-5->

<--------------------------------|
<--------------------------------|
<--------------------------------|
<--------------------------------|
<0-0-0-0-0-0-0-0-0-0-0-0-0-0-0-0-|
<0-0-0-0-0-0-0-0-0-0-0-0-0-0-0-0-|

Play it palm muted first then open it up. Simple as. There you go.
Related for Two Faced Check Your Head Up tab