Song name
# A B C D E F G H I J K L M N O P Q R S T U V W X Y Z

Superhiks - Chkembe Chorba tab

             Superhiks
             Chkembe Chorba

   Super batki super akordi i edna od najdobrite ska pesni

   Voved
   A-Dur                      Cis-mol
e|-5--5--5--5--5--5--5--5--5--9--9--9--9--9--9--9--9---|
B|-5--5--5--5--5--5--5--5--5--9--9--9--9--9--9--9--9---|
G|-6--6--6--6--6--6--6--6--6--9--9--9--9--9--9--9--9---|
D|-7--7--7--7--7--7--7--7--7-11-11-11-11-11-11-11-11---|
A|-----------------------------------------------------|
E|-----------------------------------------------------|
                                                         2 PATI DA SE OTSVIRI
   D-Dur                   E-Dur
e|-10-10-10-10-10-10-10-10-12-12-12-12-12-12-12-12-----|
B|-10-10-10-10-10-10-10-10-12-12-12-12-12-12-12-12-----|
G|-11-11-11-11-11-11-11-11-13-13-13-13-13-13-13-13-----|
D|-12-12-12-12-12-12-12-12-14-14-14-14-14-14-14-14-----|
A|-----------------------------------------------------|
E|-----------------------------------------------------|

  Prva strofa
   A-Dur                      Cis-mol
e|-5--5--5--5--5--5--5--5--5--9--9--9--9--9--9--9--9---|
B|-5--5--5--5--5--5--5--5--5--9--9--9--9--9--9--9--9---|
G|-6--6--6--6--6--6--6--6--6--9--9--9--9--9--9--9--9---|
D|-7--7--7--7--7--7--7--7--7-11-11-11-11-11-11-11-11---|
A|-----------------------------------------------------|
E|-----------------------------------------------------|
  Te gledam skoro sekoj den, a velat deka jas sum
  Mi velis brkaj  rabota, a znaes deka sum nevraboten
  I povtorno istite pogledi, me predizvikuvas,
  I moite visok kilogrami, gi zabelezuvas
   D-Dur                   E-Dur
e|-10-10-10-10-10-10-10-10-12-12-12-12-12-12-12-12-----|
B|-10-10-10-10-10-10-10-10-12-12-12-12-12-12-12-12-----|
G|-11-11-11-11-11-11-11-11-13-13-13-13-13-13-13-13-----|
D|-12-12-12-12-12-12-12-12-14-14-14-14-14-14-14-14-----|
A|-----------------------------------------------------|
E|-----------------------------------------------------|
   toj sto bil tolku naporen i zdodeven.
   pod zavod na mladi, i nesposoben.
   me raduvas.
   zaminuvas, a sakav da ti kazam deka

   Refren
   A-Dur                      Cis-mol
e|-5--5--5--5--5--5--5--5--5--9--9--9--9--9--9--9--9---|
B|-5--5--5--5--5--5--5--5--5--9--9--9--9--9--9--9--9---|
G|-6--6--6--6--6--6--6--6--6--9--9--9--9--9--9--9--9---|
D|-7--7--7--7--7--7--7--7--7-11-11-11-11-11-11-11-11---|
A|-----------------------------------------------------|
E|-----------------------------------------------------|
   sakam, da si moja, chkembe
   D-Dur                   E-Dur
e|-10-10-10-10-10-10-10-10-12-12-12-12-12-12-12-12-----|
B|-10-10-10-10-10-10-10-10-12-12-12-12-12-12-12-12-----|
G|-11-11-11-11-11-11-11-11-13-13-13-13-13-13-13-13-----|
D|-12-12-12-12-12-12-12-12-14-14-14-14-14-14-14-14-----|
A|-----------------------------------------------------|
E|-----------------------------------------------------|
   chorba, mojatuli tava vkusna

   A-Dur                      Cis-mol
e|-5--5--5--5--5--5--5--5--5--9--9--9--9--9--9--9--9---|
B|-5--5--5--5--5--5--5--5--5--9--9--9--9--9--9--9--9---|
G|-6--6--6--6--6--6--6--6--6--9--9--9--9--9--9--9--9---|
D|-7--7--7--7--7--7--7--7--7-11-11-11-11-11-11-11-11---|
A|-----------------------------------------------------|
E|-----------------------------------------------------|
   sarma, kompir manza makaroni

   D-Dur                   E-Dur
e|-10-10-10-10-10-10-10-10-12-12-12-12-12-12-12-12-----|
B|-10-10-10-10-10-10-10-10-12-12-12-12-12-12-12-12-----|
G|-11-11-11-11-11-11-11-11-13-13-13-13-13-13-13-13-----|
D|-12-12-12-12-12-12-12-12-14-14-14-14-14-14-14-14-----|
A|-----------------------------------------------------|
E|-----------------------------------------------------|
   tortelini rafinjoli

  Distorzija
e|-------------------------|
B|--------------------10---|
G|-------7--11--9-9-9--9---|
D|---7---7--11--9-9-9--7---| 16 pati
A|---7---5---9--7-7-7------|
E|---5---------------------|


e|--------------------------------|
B|---------6-6-6--4-4-4-----------|
G|--7-7-7--6-6-6--4-4-4--7-7-7----|
D|--7-7-7--4-4-4--2-2-2--7-7-7----|2 pati
A|--5-5-5----------------5-5-5----|
E|--------------------------------|

   Refren
   A-Dur                      Cis-mol
e|-5--5--5--5--5--5--5--5--5--9--9--9--9--9--9--9--9---|
B|-5--5--5--5--5--5--5--5--5--9--9--9--9--9--9--9--9---|
G|-6--6--6--6--6--6--6--6--6--9--9--9--9--9--9--9--9---|
D|-7--7--7--7--7--7--7--7--7-11-11-11-11-11-11-11-11---|
A|-----------------------------------------------------|
E|-----------------------------------------------------|
   sakam, da si moja, chkembe
   D-Dur                   E-Dur
e|-10-10-10-10-10-10-10-10-12-12-12-12-12-12-12-12-----|
B|-10-10-10-10-10-10-10-10-12-12-12-12-12-12-12-12-----|
G|-11-11-11-11-11-11-11-11-13-13-13-13-13-13-13-13-----|
D|-12-12-12-12-12-12-12-12-14-14-14-14-14-14-14-14-----|
A|-----------------------------------------------------|
E|-----------------------------------------------------|
   chorba, mojatuli tava vkusna

   A-Dur                      Cis-mol
e|-5--5--5--5--5--5--5--5--5--9--9--9--9--9--9--9--9---|
B|-5--5--5--5--5--5--5--5--5--9--9--9--9--9--9--9--9---|
G|-6--6--6--6--6--6--6--6--6--9--9--9--9--9--9--9--9---|
D|-7--7--7--7--7--7--7--7--7-11-11-11-11-11-11-11-11---|
A|-----------------------------------------------------|
E|-----------------------------------------------------|
   sarma, kompir manza makaroni

   D-Dur                   E-Dur
e|-10-10-10-10-10-10-10-10-12-12-12-12-12-12-12-12-----|
B|-10-10-10-10-10-10-10-10-12-12-12-12-12-12-12-12-----|
G|-11-11-11-11-11-11-11-11-13-13-13-13-13-13-13-13-----|
D|-12-12-12-12-12-12-12-12-14-14-14-14-14-14-14-14-----|
A|-----------------------------------------------------|
E|-----------------------------------------------------|
   tortelini rafinjoli

   Ako ima nekoj potocna ideja neka ja objavi. Mozda ima nekoj greski ama zato vie ste 
da gi popravite
Tap to rate this tab
# A B C D E F G H I J K L M N O P Q R S T U V W X Y Z