Song name
# A B C D E F G H I J K L M N O P Q R S T U V W X Y Z

Superjoint Ritual - Fuck Your Enemy tab

Help us improve GuitareTab! Take a short survey!
SSSSSSSS  JJJJJJJJJ  RRRRRRR
SSSSSSSS  JJJJJJJJJ  RRRRRRRR
SS            JJ     RR    RR
SSSSSSSS      JJ     RR    RR
SSSSSSSS      JJ     RRRRRRR
      SS  JJ  JJ     RR    RR
SSSSSSSS  JJ  JJ     RR    RR
SSSSSSSS  JJJJJJ     RR    RR


FUCK YOUR ENEMY

Tabbed by DownForLife97
Email: HellxBound97@aim.com

Note: I am not positive that this is 100% correct, 
but you if you play this along with the song,
it sounds perfect to me.  

Send corrections to my email, thanks.






Drop D Tuning, 1/2 Step down (Eb, Bb, Gb, Db, Ab, Db)

Notations:
----------
p = Pull Off
* = Mute strings
~ = Vibrato
\ = Slide down
/ = Slide up


_---INTRO---_

Guitar 1

|--------------------|------------------|--------------------|-------------------|
|--------------------|------------------|--------------------|-------------------|
|--------------------|------------------|--------------------|-------------------|
|--------------------|------------------|--------------------|-------------------|
|-0-0-3-p0-3-p0-3-p0-|-3-p0-3-6-----0---|-0---3-p0-3-p0-3-p0-|-3-p0-3-6~---------|
|-0-0-3-p0-3-p0-3-p0-|-3-p0-3-6-----0---|-0---3-p0-3-p0-3-p0-|-3-p0-3-6~---------|
             
  1 + 2  + 3  + 4  +   1  + 2 + 3 + 4 +   1 + 2  + 3  + 4  +  -1  + 2 + 3 + 4 

Guitar 2

|--------------------|------------------|--------------------|-------------------|
|--------------------|------------------|--------------------|-------------------|
|--------------------|------------------|--------------------|-------------------|
|--------------------|------------------|--------------------|-------------------|
|-0-0-*--------------|------------------|-0-*----------------|-------------------|
|-0-0-*--------------|------------------|-0-*----------------|--------------22\--|

  1 + 2  + 3  + 4  +   1  + 2 + 3 + 4 +   1 + 2  + 3  + 4  +   1  + 2 + 3 + 4 




Guitar 1

|--------------------|------------------|--------------------|------------------|
|--------------------|------------------|--------------------|------------------|
|--------------------|------------------|--------------------|------------------|
|--------------------|------------------|--------------------|------------------|
|--------------------|------------------|--------------------|------------------|
|-0-0-3-p0-3-p0-3-p0-|-3-p0-3-6-----0---|-0---3-p0-3-p0-3-p0-|3-p0-3-6~---------|
             
  1 + 2  + 3  + 4  +   1  + 2 + 3 + 4 +   1 + 2  + 3  + 4  +  1  + 2 + 3 + 4 

Guitar 2

|--------------------|------------------|--------------------|-------------------|
|--------------------|------------------|--------------------|-------------------|
|--------------------|------------------|--------------------|-------------------|
|--------------------|------------------|--------------------|-------------------|
|--------------------|------------------|--------------------|-------------------|
|-0-0-3-p0-3-p0-3-p0-|-3-p0-3-6-----0---|-0---3-p0-3-p0-3-p0-|-3-p0-3-/-18~------|
             
  1 + 2  + 3  + 4  +   1  + 2 + 3 + 4 +   1 + 2  + 3  + 4  +   1  + 2 + 3 + 4 




_---VERSE---_

Both Guitars

|--------------------|------------------|--------------------|-------------------|
|--------------------|------------------|--------------------|-------------------|
|--------------------|------------------|--------------------|-------------------|
|--------------------|------------------|--------------------|-------------------|
|--------------------|------------------|--------------------|-------------------|
|-0---3-p0-3-p0-3-p0-|-3-p0-3-6~--------|-0-0-3-p0-3-p0-3-p0-|-3-p0-3-6-----0----|
             
  1 + 2  + 3  + 4  +   1  + 2 + 3 + 4 +   1 + 2  + 3  + 4  +   1  + 2 + 3 + 4 


|--------------------|------------------|--------------------|-------------------|
|--------------------|------------------|--------------------|-------------------|
|--------------------|------------------|--------------------|-------------------|
|--------------------|------------------|--------------------|-------------------|
|--------------------|------------------|--------------------|-------------------|
|-0-0-3-p0-3-p0-3-p0-|-3-p0-3-6~--------|-0-0-3-p0-3-p0-3-p0-|-3-p0-3-/-18~------|
             
  1 + 2  + 3  + 4  +   1  + 2 + 3 + 4 +   1 + 2  + 3  + 4  +   1  + 2 + 3 + 4 





_---Breakdown---_

Both Guitars

(Half Time)

||-----------------------------------|--------------------------------------|
||-----------------------------------|--------------------------------------|
||-----------------------------------|--------------------------------------|
||-----------------------------------|--------------------------------------|
||-----------------------------------|--------------------------------------|
||-0---3-p0-3-p0-3-p0-3-p0-3-6~------|-0-0-3-p0-3-p0-3-p0-3-p0-3-6-----0----|
             
   1   +   2    +   3   +    4    +    1   +    2    +    3    +    4  +   

||-----------------------------------|--------------------------------------|
||-----------------------------------|--------------------------------------|
||-----------------------------------|--------------------------------------|
||-----------------------------------|--------------------------------------|
||-----------------------------------|--------------------------------------|
||-0-0-3-p0-3-p0-3-p0-3-p0-3-6~------|-0-0-3-p0-3-p0-3-p0-3-p0-3-/-18~------|
             
   1   +   2    +   3   +    4    +    1   +    2    +    3    +    4  + 





_---VERSE---_

Both Guitars

|--------------------|------------------|--------------------|-------------------|
|--------------------|------------------|--------------------|-------------------|
|--------------------|------------------|--------------------|-------------------|
|--------------------|------------------|--------------------|-------------------|
|--------------------|------------------|--------------------|-------------------|
|-0---3-p0-3-p0-3-p0-|-3-p0-3-6~--------|-0-0-3-p0-3-p0-3-p0-|-3-p0-3-6-----0----|
             
  1 + 2  + 3  + 4  +   1  + 2 + 3 + 4 +   1 + 2  + 3  + 4  +   1  + 2 + 3 + 4 


|--------------------|------------------|--------------------|-------------------|
|--------------------|------------------|--------------------|-------------------|
|--------------------|------------------|--------------------|-------------------|
|--------------------|------------------|--------------------|-------------------|
|--------------------|------------------|--------------------|-------------------|
|-0-0-3-p0-3-p0-3-p0-|-3-p0-3-6~--------|-0-0-3-p0-3-p0-3-p0-|-3-p0-3-6-----0----|
             
  1 + 2  + 3  + 4  +   1  + 2 + 3 + 4 +   1 + 2  + 3  + 4  +   1  + 2 + 3 + 4 





_---CHORUS---_

Both Guitars

||------|
||------|
||------|
||------|  REPEAT 8x
||-4/5--|
||-4/5--|
             
   1 2 3  


||--------------------|------------------|
||--------------------|------------------|
||--------------------|------------------|
||--------------------|------------------|
||--------------------|------------------|
||-0---3-p0-3-p0-3-p0-|-3-p0-3-6-----0---|
             
   1 + 2  + 3  + 4  +   1  + 2 + 3 + 4 +   

||--------------------|------------------|
||--------------------|------------------|
||--------------------|------------------|
||--------------------|------------------|
||--------------------|------------------|
||-0-0-3-p0-3-p0-3-p0-|-3-p0-3-6-----0---|
             
   1 + 2  + 3  + 4  +   1  + 2 + 3 + 4 +   


||------|
||------|
||------|
||------|  REPEAT 8x
||-4/5--|
||-4/5--|
             
   1 2 3  

||--------------------|------------------|
||--------------------|------------------|
||--------------------|------------------|
||--------------------|------------------|
||--------------------|------------------|
||-0---3-p0-3-p0-3-p0-|-3-p0-3-6-----0---|
             
   1 + 2  + 3  + 4  +   1  + 2 + 3 + 4 +   

||--------------------|------------------|
||--------------------|------------------|
||--------------------|------------------|
||--------------------|------------------|
||--------------------|------------------|
||-0-0-3-p0-3-p0-3-p0-|-3-p0-3-6-----0---|
             
   1 + 2  + 3  + 4  +   1  + 2 + 3 + 4 +  

||--------------------|------------------|
||--------------------|------------------|
||--------------------|------------------|
||--------------------|------------------|
||--------------------|------------------|
||-0-0-3-p0-3-p0-3-p0-|-3-p0-3-6-----0---|
             
   1 + 2  + 3  + 4  +   1  + 2 + 3 + 4 +   

||--------------------|------------------|
||--------------------|------------------|
||--------------------|------------------|
||--------------------|------------------|
||--------------------|------------------|
||-0-0-3-p0-3-p0-3-p0-|-3-p0-3-6-----0---|
             
   1 + 2  + 3  + 4  +   1  + 2 + 3 + 4 +  




_---BRIDGE---_

||--------------------------|
||--------------------------|
||--------------------------|
||-5-4-3--------------------|
||-------5-4-3--------------|
||-------------7-6-5-5-4-3--|

   1 + 2 + 3 + 4 + 5 + 6 +  

||--------------------|------------------|
||--------------------|------------------|
||--------------------|------------------|
||--------------------|------------------|
||--------------------|------------------|
||-0---3-p0-3-p0-3-p0-|-3-p0-3-6-----0---|
             
   1 + 2  + 3  + 4  +   1  + 2 + 3 + 4 +  
             
           
REPEAT BRIDGE 2 X


GUITAR 1

||--------------------------|
||--------------------------|
||--------------------------|
||-5-4-3--------------------|
||-------5-4-3--------------|
||-------------7-6-5-5-4-3--|

   1 + 2 + 3 + 4 + 5 + 6 + 

GUITAR 1

||--------------------------|
||--------------------------|
||-5-4-3--------------------|
||-------5-3-2--------------|
||-------------5-4-3-3-2-1--|
||--------------------------|

   1 + 2 + 3 + 4 + 5 + 6 + 



_---OUTRO---_

 Both Guitars

|--------------------|------------------|--------------------|-------------------|
|--------------------|------------------|--------------------|-------------------|
|--------------------|------------------|--------------------|-------------------|
|--------------------|------------------|--------------------|-------------------|
|--------------------|------------------|--------------------|-------------------|
|-0-0-3-p0-3-p0-3-p0-|-3-p0-3-6-----0---|-0-0-3-p0-3-p0-3-p0-|-3-p0-3-6-----0----|
             
  1 + 2  + 3  + 4  +   1  + 2 + 3 + 4 +   1 + 2  + 3  + 4  +   1  + 2 + 3 + 4 


|--------------------|------------------|--------------------|-------------------|
|--------------------|------------------|--------------------|-------------------|
|--------------------|------------------|--------------------|-------------------|
|--------------------|------------------|--------------------|-------------------|
|--------------------|------------------|--------------------|-------------------|
|-0-0-3-p0-3-p0-3-p0-|-3-p0-3-6-----0---|-0-0-3-p0-3-p0-3-p0-|-3-p0-3-6-----0-*--|
             
  1 + 2  + 3  + 4  +   1  + 2 + 3 + 4 +   1 + 2  + 3  + 4  +   1  + 2 + 3 + 4 



End.

Related for Fuck Your Enemy tab