Song name
# A B C D E F G H I J K L M N O P Q R S T U V W X Y Z

Superjoint Ritual - The Destruction Of A Person tab

-------------------------------------------------------------------------
Song Title: The Destruction Of A Person
Band Name: Superjoint Ritual
-------------------------------------------------------------------------------
Tabbed by:Knivesoverlord aka Chance the ripper Suiter
E-mail:scaryguy100@msn.com


Thought I'd tab out the riffs. Listen to the song for the correct timing.

Tuning:Db At least that what it sounds like to me.

e|---------------------------------------------------------------------------|
B|---------------------------------------------------------------------------|
G|--------------6------------------------------------------------------------|
D|------------5---5------5---------------------------------------------------|
A|----------7-------7------7-------------------------------------------------|
E|-17/----0------------0-----6--6-6-6----------------------------------------|

e|----------------------------------------------------------------------------|
B|----------------------------------------------------------------------------|
G|----------------------------------------------------------------------------|
D|-----5-6--5------5----------------------------------------------------------|
A|---7--------7~-----7-7--7-7-7/5\7/5\7/5\8-7-5-------------------------------|
E|-0-------------0-----5--5-5-5/3\5/3\5/3\6-5-3-------------------------------|

e|---------------------------------------------------------------------------|
B|---------------------------------------------------------------------------|
G|----3------3------3---4--3-------------------------------------------------|
D|------5------5------5------------------------------------------------------|
A|-0------0------0-----------------------------------------------------------|
E|---------------------------------------------------------------------------|

e|---------------------------------------------------------------------------|
B|---------------------------------------------------------------------------|
G|---------------------------------------------------------------------------|
D|---9-10---9-10---7-8---5-6---5-6-------------------------------------------|
A|-7-7-8--7-7-8--5-5-6-3-3-4-3-3-4-------------------------------------------|
E|-5------5------3-----1-----1-----------------------------------------------|

e|---------------------------------------------------------------------------|
B|---------------------------------------------------------------------------|
G|---------------------------------------------------------------------------|
D|---9-10--7-8---5-6---5-6---------------------------------------------------|
A|-7-7-8-5-5-6-3-3-4-3-3-4---------------------------------------------------|
E|-5-----3-----1-----1-------------------------------------------------------|

e|---------------------------------------------------------------------------|
B|---------------------------------------------------------------------------|
G|---------------------------------------------------------------------------|
D|----3b----6b----6b/3-0-3---------------------------------------------------|
A|-0-0---0-0---0-0-----------------------------------------------------------|
E|---------------------------------------------------------------------------|

e|---------------------------------------------------------------------------|
B|---------------------------------------------------------------------------|
G|---------------------------------------------------------------------------|
D|---------------------------------------------------------------------------|
A|-0000-5-4------------------------------------------------------------------|
E|------3-2------------------------------------------------------------------|

|


************************************

| /   slide up
| \   slide down
| h   hammer-on
| p   pull-off
| ~   vibrato
| +   harmonic
| x   Mute note
| b   Bend
| pb  Pre-bend
| br  Bend release
| pbr Pre-bend release
| brb Bend release bend

************************************
Tap to rate this tab
# A B C D E F G H I J K L M N O P Q R S T U V W X Y Z