Song name
# A B C D E F G H I J K L M N O P Q R S T U V W X Y Z

Superjoint Ritual - Creepy Crawl tab

Song: Creepy Crawl
By: Superjoint Ritual
Album: Use Once and Destroy 
Tuning: C#
Tabbed by Necromonicbreadlord 
Email: mayhemman66@hotmail.com 

Riff 1
|---------------------------------|
|---------------------------------|
|--4-4-5-4-4-5-4-4-5-4-4-5--------|
|--2-2-3-2-2-3-2-2-3-2-2-3--------|

Riff 2
|-------------------------------|
|-------------------------------|
|--4-4-5-4-4-7-4-4-5-4-4-7------|
|--2-2-3-2-2-5-2-2-3-2-2-5------|



Riff 3
|------------------------------------|
|------------------------------------|
|--4-4-5-5-4-4-7-7-4-4-5-5-4-4-7-7---|
|--2-2-3-3-2-2-5-5-2-2-3-3-2-2-5-5---|


Riff 4
|----------------|
|----------------|
|--3---3---------|
|--1---1---------|
Played after Riff 2 minus the last note

Riff 5
|-------------------------------|
|-------------------------------|
|--3--3--3--3--3--3--3--3-------|
|--1--1--1--1--1--1--1--1-------|

Riff 6
|---------------------------------------------|
|---------------------------------------------|
|--3-6-5-8--8--4---2-5-4-7--7--3--------------|
|--1-4-3-6--6--2---0-3-2-5--5--1--------------|
Tap to rate this tab
# A B C D E F G H I J K L M N O P Q R S T U V W X Y Z