Guitaretab - guitar tabs
Song name
# A B C D E F G H I J K L M N O P Q R S T U V W X Y Z

Superjoint Ritual - Waiting For The Turning Point tab

Artist- Superjoint ritual
Song- waiting for the turning point
tuning- drop d

lol i made this while i was in school so i didnt have time to think it out, so i hope 
helps more than the other tabs...

UPDATE!! (2/21/08) I added more parts to the interlude or the "turning point" your might call it.

Lead and Rhythm
E----------------------------------------------|
B----------------------------------------------|
G----------------------------------------------|
D--2-2--4---2-2---4---2-2---4------------------|
A--2-2--4---2-2---4---2-2---4------------------|
D--2-2--4---2-2---4---2-2---4------------------|
                                       Let Ring
Rhythm guitar (2 times)
E-----------------------------------------------|
B-----------------------------------------------|
G-----------------------------------------------|
D-----4444-----77777----------------------------|
A-----4444-----55555--77777---66666-------------|
D-----4444------------77777---66666-------------|

Lead guitar
E-----------------------------------------------|
B-----------------------------------------------|
G-----------------------------------------------|
D---------------X~~~~~~~~~~---------------------|
A---------------X~~~~~~~~~~---------------------|
D---------------X~~~~~~~~~~---------------------|

Lead and Rhythm (4 times)
E------------------------------------------------|
B------------------------------------------------|
G------------------------------------------------|
D-----4444-----77777-----------------------------|
A-----4444-----55555--77777---66666--------------|
D-----4444------------77777---66666--------------|

 Lead and Rhythm a couple times
E------------------------------------------------|
B------------------------------------------------|
G------------------------------------------------|
D-----444444444444444444444444444-----X*---------|
A-----444444444444444444444444444-----X*---------|
D-----444444444444444444444444444-----X*---------|
*Scrape the the strings up and down like strumming while moving 
down and back up the neck.

       Lead and Rhythm
E----------------------------------------------|
B----------------------------------------------|
G----------------------------------------------|
D--2-2--4---2-2---4---2-2---4------------------|
A--2-2--4---2-2---4---2-2---4------------------|
D--2-2--4---2-2---4---2-2---4------------------|
[ Tab from: http://www.guitaretab.com/s/superjoint-ritual/47750.html ]
Lead and Rhythm guitar (2 times)
E------------------------------------------------|
B------------------------------------------------|
G------------------------------------------------|
D-----4444-----77777-----------------------------|
A-----4444-----55555--77777---66666--------------|
D-----4444------------77777--66666--------------|

Lead and Rhythm
E-----------------------------------------------|
B-----------------------------------------------|
G-----------------------------------------------|
D----10---1--0--1-0--1-0--1---0-0-0-0----------|
A----10---1--0--1-0--1-0--1---0-0-0-0----------|
D----1-0---1--0--1-0--1-0--1---0-0-0-0----------|
     Tremolo picking------------------|

Lead and Rhythm (4 times)
E-----------------------------------------------|
B-----------------------------------------------|
G-----------------------------------------------|
D----1--1--1--1--0--0-0-0-----------------------|
A----1--1--1--1--0--0-0-0-----------------------|
D----1--1--1--1--0--0-0-0-----------------------|

Lead and Rhythm
E--------------------------------------------------------------------------|
B--------------------------------------------------------------------------|
G--------------------------------------------------------------------------|
D--------------------------------------------------------------------------|
A-0-0-0-0-1-1-1-1-2-2-2-2-3-3-3-3-4-4-4-4-5-5-5-5-6-6-6-6-7-7-7-7-8-4-4-4--|
D-0-0-0-0-1-1-1-1-2-2-2-2-3-3-3-3-4-4-4-4-5-5-5-5-6-6-6-6-7-7-7-7-8-4-4-4--|


Lead and Rhythm
E--------------------------------------------------------------------------|
B--------------------------------------------------------------------------|
G--------------------------------------------------------------------------|
D--------------------------------------------------------------------------|
A--0-0-0-0-1-1-1-1-2-2-2-2-3-3-3-3-4-4-4-4-5-5-5-5-6-6-6-6-7-7-7-7-8-4-----|
D--0-0-0-0-1-1-1-1-2-2-2-2-3-3-3-3-4-4-4-4-5-5-5-5-6-6-6-6-7-7-7-7-8-4-----|

Lead and Rhythm
E----------------------------------------------|
B----------------------------------------------|
G----------------------------------------------|
D--2-2--4---2-2---4---2-2---4------------------|
A--2-2--4---2-2---4---2-2---4------------------|
D--2-2--4---2-2---4---2-2---4------------------|

Lead and Rhythm (4 times)
E-----------------------------------------------|
B-----------------------------------------------|
G-----------------------------------------------|
D-----4444-----77777----------------------------|
A-----4444-----55555--77777---66666-------------|
D-----4444------------77777---66666-------------|

Lead and Rhythm
E----------------------------------------------|
B----------------------------------------------|
G----------------------------------------------|
D--2-2--4---2-2---4---2-2---4------------------|
A--2-2--4---2-2---4---2-2---4------------------|
D--2-2--4---2-2---4---2-2---4------------------|


.....the end...hope you enjoy!!!
Related for Waiting For The Turning Point tab