Guitaretab - guitar tabs
Song name
# A B C D E F G H I J K L M N O P Q R S T U V W X Y Z

Superjoint Ritual - Drug Your Love tab

Band- Superjoint Ritual
Song- Drug Your Love

Drop C# tuning


Verse x3
-|------------------------------------------------------------------|---------|
-|------------------------------------------------------------------|---------|
-|----------------------------------------------------5-x-1---1-1-1-|---------|
-|------------------------------------------------------x-----------|---------|
-|------0-0-0-0----------0-0-0-0----------0-0-0-0-------------------|---------|
-|-3p0--0-0-0-0-3p0-3p0--0-0-0-0-3p0-3p0--0-0-0-0-3p0---------------|---------|

Verse end
-|---------------------------------------------------------------------------|
-|--------------------------------------------------------------------6b-6b--|
-|----------------------------------------------------5-x-1-x-5-x-1-x--------|
-|------------------------------------------------------x---x---x---x--------|
-|------0-0-0-0----------0-0-0-0----------0-0-0-0----------------------------|
-|-3p0--0-0-0-0-3p0-3p0--0-0-0-0-3p0-3p0--0-0-0-0-3p0------------------------|

Verse x3
verse end

Chorus x1
-|-------------------------------------------------------|--------------------|
-|-------------------------------------------------------|--------------------|
-|-------------------------------------------------------|--------------------|
-|-------------------------------------------------------|--------------------|
-|--3---4---5---2-3-5-2-3-5--1---------------------------|--------------------|
-|--------------2-3-5-2-3-5----2---------1---------------|--------------------|

verse x4
verse end

(Rest left hand over strings and slide slowly down then up the neck starting
from 12th fret on C# string, picking as you go)

[ Tab from: http://www.guitaretab.com/s/superjoint-ritual/57064.html ]
Mute
-|-x-x-x-x-x-x-x-x-x-x-x-x-x-x-x-x-|------------------------------------------|
-|-x-x-x-x-x-x-x-x-x-x-x-x-x-x-x-x-|------------------------------------------|
-|-x-x-x-x-x-x-x-x-x-x-x-x-x-x-x-x-|------------------------------------------|
-|-x-x-x-x-x-x-x-x-x-x-x-x-x-x-x-x-|------------------------------------------|
-|-x-x-x-x-x-x-x-x-x-x-x-x-x-x-x-x-|------------------------------------------|
-|-x-x-x-x-x-x-x-x-x-x-x-x-x-x-x-x-|------------------------------------------|

Open
-|-----------------|----------------------------------------------------------|
-|-----------------|----------------------------------------------------------|
-|-----------------|----------------------------------------------------------|
-|-----------------|----------------------------------------------------------|
-|-0-0-0-0-0-0-0-0-|----------------------------------------------------------|
-|-0-0-0-0-0-0-0-0-|----------------------------------------------------------|

mute
open
mute
open
mute
open
mute
open
mute
open
mute


Interlude
-|------------------------------------------------------------------------|---|
-|------------------------------------------------------------------------|---|
-|------------------------------------------------------------------------|---|
-|------------------------------------------------------------------------|---|
-|-------3--5------------3--5--/7--5---------3--5------------3--5--2---3--|---|
-|-0--3------------0--3----------------0--3------------0--3---------------|---|


-|------------------------------------------------------------------------|---|
-|------------------------------------------------------------------------|---|
-|------------------------------------------------------------------------|---|
-|----------3-------------3--/5--3--------------3--------------3---0---2--|---|
-|-------3-------------3---------------------3--------------3-------------|---|
-|-0--3----------0--3------------------0--3-----------0--3----------------|---|


mute

Verse x4
verse end
Related for Drug Your Love tab
×
Drug Your Love