Song name
# A B C D E F G H I J K L M N O P Q R S T U V W X Y Z

Superjoint Ritual - Everyone Hates Everyone tab

Band- Superjoint Ritual
Song- Everyone Hates Everyone

Tunning C# F# B E G# c#

Riff 1
|-------------------------------------------------------------------|
|-------------------------------------------------------------------|
|-------------------------------------------------------------------|
|-4-4-4-------------------------------------------------------------|
|-2-2-2--3--3-3-3-3-3-3-3-3-3-3-3-----------------------------------|
|--------1--1-1-1-1-1-1-1-1-1-1-1-----------------------------------|


Riff 2
|-------------------------------------------------------------------|
|-------------------------------------------------------------------|
|-------------------------------------------------------------------|
|-4-4-4------4-----4-----4-----------------------------------------------|
|-2-2-2---3--2--3--2--3--2--3--------------------------------------------|
|---------1-----1-----1-----1--------------------------------------------|


Riff 3
|-------------------------------------------------------------------|
|-------------------------------------------------------------------|
|-------------------------------------------------------------------|
|-------------------------------------------------------------------|
|-2--2~--2-----------------------------2----------------------------|
|-0-----0--4~--0-0-0-0-0-0-0-0-0-0-0-0-0----------------------------|


Riff 4
|-------------------------------------------------------------------|
|-------------------------------------------------------------------|
|-------------------------------------------------------------------|
|------------------------------------------------------------9-8-5--|
|-7-7--5-7-7--5-7-7--5-7-5-7-5-7-7--5-7-7--5-7-7--5-7-5-7-5--7-6-3-4|
|-5-5--3-5-5--3-5-5--3-5-3-5-3-5-5--3-5-5--3-5-5--3-5-3-5-3--------2|


Riff 5
|-------------------------------------------------------------------|
|-------------------------------------------------------------------|
|-------------------------------------------------------------------|
|-4-4-4-------------------------------------------------------------|
|-2-2-2--3--3-3-3-3-3-3-3-3-3---------------------------------------|
|--------1--1-1-1-1-1-1-1-1-1---------------------------------------|
Note: This is about the same riff as Riff 1 but with a different Rythm pattern

Riff6
|-------------------------------------------------------------------|
|-------------------------------------------------------------------|
|-------------------------------------------------------------------|
|-4-4-4-------------------------------------------------------------|
|-2-2-2--3--3-3-3-3-3-3-3-3-3--7-6--6-5--5-2------------------------|
|--------1--1-1-1-1-1-1-1-1-1--5-4--4-3--3-0------------------------|


Riff 7
|-------------------------------------------------------------------|
|-------------------------------------------------------------------|
|-------------------------------------------------------------------|
|-------------------------------------------------------------------|
|-7-6---6-5---5-4---------------------------------------------------|
|-5-4-0-4-3-0-3-2--0-0-0-0-0-0-0-0----------------------------------|

Guitar 2 over Riff 7
|-------------------------------------------------------------------|
|-------------------------------------------------------------------|
|-------------------------------------------------------------------|
|--5---8-7~-7-7-7b8r-7bh--7-4--5--8-7~------------------------------|
|-------------------------------------------------------------------|
|-------------------------------------------------------------------|


This is how the song goes:

Riff1: 4 times
Riff2: once
Riff1: 4 times
Riff3: 4 times
Riff1: 5 times
Riff2: Once
Riff1: 4 times
Riff3: 4 times
Riff4: 2 times
Riff5: 10 times
Riff6: Once
Riff7: 16 times
Guitar 2 Over Riff7: Once
Tap to rate this tab
 
# A B C D E F G H I J K L M N O P Q R S T U V W X Y Z