Song name
# A B C D E F G H I J K L M N O P Q R S T U V W X Y Z

Superjoint Ritual - Haunted Hated tab

Band- Superjoint Ritual
Song- haunted Hated

|-----------------||--------|
|-----------------||--------|
|-----------------||--------|
|-----------------||--------|
|-9--7--5--2-2-2--||--------|
|-7--5--3--0-0-0--||-8-8-8b-|
                      

                     4 x's
|-----------------||--------|
|-----------------||--------|
|-----------------||--------|
|-----------------||--------|
|-9--7--5--2-2-2--||--------|
|-7--5--3--0-0-0--||-8-8-8b-|
                        
|------------------------------------|
|------------------------------------|
|------------------------------------|
|------------------------------------|
|-101010-9-9-9--8-8-8-8-8-8-8-8-8-8--|
|-8-8-8--7-7-7--6-6-6-6-6-6-6-6-6-6--|

(repeat all of above)

This is the heavest part in the world!!!

|---------------------------------|
|---------------------------------|
|---------------------------------|
|---------------------------------|
|-777-555-666-555-444-333-444-555-|
|-555-333-444-333-222-111-222-333-|


|------------------------|
|------------------------|
|------------------------|
|------------------------|
|------------------------|
|-5--3--4--3--2--1--2--3-|
Tap to rate this tab
# A B C D E F G H I J K L M N O P Q R S T U V W X Y Z