Song name
# A B C D E F G H I J K L M N O P Q R S T U V W X Y Z

Superjoint Ritual - Introvert tab

Band- Superjoint Ritual
Song- The Introvert

Tunning C# F# B E G# c#


Riff 1
|-------------------------------------------------------------------|
|-------------------------------------------------------------------|
|--4-3-2------------------------------------------------------------|
|--2-1-0-5-4-2-4-4-4-4-4-4-4-4-4-4----------------------------------|
|--------3-2-0-2-2-2-2-2-2-2-2-2-2----------------------------------|
|-------------------------------------------------------------------|


Riff 2
|-------------------------------------------------------------------|
|-------------------------------------------------------------------|
|-------------------------------------------------------------------|
|-2~----------------------------------------------------------------|
|-----2~------------------------------------------------------------|
|--------3-3-3-3-3-3------------------------------------------------|


Riff 3
|-------------------------------------------------------------------|
|-------------------------------------------------------------------|
|-------------------------------------------------------------------|
|--5-5-5-5-5-5-5-5--5-5-5-5-5-5-5-5---------------------------------|
|--3-3-3-3-3-3-3-3--2-2-2-2-2-2-2-2---------------------------------|
|-------------------------------------------------------------------|

Riff 4
|-------------------------------------------------------------------|
|-------------------------------------------------------------------|
|-------------------------------------------------------------------|
|-2~----------------------------------------------------------------|
|-----2~-----------5------------------------------------------------|
|--------3-3-3-3-3-3------------------------------------------------|
                   Let ring the last power chord untill the next riff

Riff 5
|-------------------------------------------------------------------|
|-------------------------------------------------------------------|
|--4-4-4-4-4--------------------------------------------------------|
|--2-2-2-2-2--4-4-4-4-4---------------------------------------------|
|-------------2-2-2-2-2--5-5-5-5-5-5-5-5----------------------------|
|------------------------3-3-3-3-3-3-3-3----------------------------|


Riff 6
|-------------------------------------------------------------------|
|-------------------------------------------------------------------|
|-------------------------------------------------------------------|
|-------------------------------------------------------------------|
|--5---5---5--5---5---5---5--5---5---5---5--5-----------------------|
|--3-0-3-0-3--3---3-0-3-0-3--3---3-0-3-0-3--3-----------------------|


Riff 7
|-------------------------------------------------------------------|
|-------------------------------------------------------------------|
|-------------------------------------------------------------------|
|-------------------------------------------------------------------|
|-------------------------------------------------------------------|
|--3---3---3---3---3---3---3---3---3---3---3---3---3---3---3--------|
 N.H N.H N.H N.H N.H N.H N.H N.H N.H N.H N.H N.H N.H N.H N.H

Riff 8
|-------------------------------------------------------------------|
|-------------------------------------------------------------------|
|-------------------------------------------------------------------|
|--5-5-5-5-5-5-----5-5-5-5-5-5--------------------------------------|
|--3-3-3-3-3-3--4--3-3-3-3-3-3--4-----------------------------------|
|---------------2---------------2-----------------------------------|


Riff 9
|-------------------------------------------------------------------|
|-------------------------------------------------------------------|
|-------------------------------------------------------------------|
|-------------------------------------------------------------------|
|--5-5-5-5-5-5-5-5-5-5-5-5-5-5-5------------------------------------|
|--3-3-3-3-3-3-3-3-3-3-3-3-3-3-3------------------------------------|


Riff 10
|-------------------------------------------------------------------|
|-------------------------------------------------------------------|
|-------------------------------------------------------------------|
|-------------------------------------------------------------------|
|-5-2-5-2-5-2-5-2-5-2-5-2-5-2-5-2-5-2-5-2-5-2-5-2-5-2-5-2-5-2-5-2-5-|
|-3-0-3-0-3-0-3-0-3-0-3-0-3-0-3-0-3-0-3-0-3-0-3-0-3-0-3-0-3-0-3-0-3-|


|-------------------------------------------------------------------|
|-------------------------------------------------------------------|
|-------------------------------------------------------------------|
|-------------------------------------------------------------------|
|-5-2-5-2-5-2-5-2-5-2-5-2-5-2-5-2-5-2-5-2-5-2-5-2-5-2-5-2-5---------|
|-3-0-3-0-3-0-3-0-3-0-3-0-3-0-3-0-3-0-3-0-3-0-3-0-3-0-3-0-3---------|


|-------------------------------------------------------------------|
|-------------------------------------------------------------------|
|-------------------------------------------------------------------|
|-------------------------------------------------------------------|
|-5-5-5-5-5-5-------------------------------------------------------|
|-3-3-3-3-3-3-------------------------------------------------------|
Tap to rate this tab
# A B C D E F G H I J K L M N O P Q R S T U V W X Y Z