Song name
# A B C D E F G H I J K L M N O P Q R S T U V W X Y Z

Superjoint Ritual - It Takes No Guts tab

Band- Superjoint Ritual
Song- It Takes No Guts

Tunning C# F# B E G# c#

Riff 1
|-------------------------------------------------------------------|
|-------------------------------------------------------------------|
|-------------------------------------------------------------------|
|-------------------------------------------------------------------|
|-------------------------------------------------------------------|
|-0-0-0-0-0-0-0-0-0-0-0-0-0-0-0-0-0-0-0-0-0-0-0---------------------|


Riff 2
|-------------------------------------------------------------------|
|-------------------------------------------------------------------|
|-------------------------------------------------------------------|
|-------------------------------------------------------------------|
|-2-2------2--2-2------2--2-2-----2--2-2------2---------------------|
|-0-0--3~--0--0-0--3~--0--0-0--3~-0--0-0--3~--0---------------------|


Riff 3
|-------------------------------------------------------------------|
|-------------------------------------------------------------------|
|-------------------------------------------------------------------|
|-------------------------------------------------------------------|
|-2----2---2---2---2---2---2---2------------------------------------|
|-0----0---0---0---0---0---0----------------------------------------|
  .    .   .   .   .   .   .   .

Riff 4
|-------------------------------------------------------------------|
|-------------------------------------------------------------------|
|-------------------------------------------------------------------|
|-------------------------------------------------------------------|
|-------------------------4---4---4----4---4------------------------|
|-----0-0-0-0-0-0-0-0-----2---2---2----2---2------------------------|
      . . . . . . . .     .   .   .    .   .


Riff 5
|-------------------------------------------------------------------|
|-------------------------------------------------------------------|
|-------------4----------------4----------4---------4---------------|
|-------------------------------------------------------------------|
|-----------------------------------------------------4--4--4--4--4-|
|--0-0-0-0--------0-0-0-0-0-0----0-0-0-0----0-0-0-0---2--2--2--2--2-|


Ending Riff
|-------------------------------------------------------------------|
|-------------------------------------------------------------------|
|-------------------------------------------------------------------|
|-------------------------------------------------------------------|
|--2-2---4--2-2-5---------------------------------------------------|
|--0-0---2--0-0-3---------------------------------------------------|
Tap to rate this tab
 
# A B C D E F G H I J K L M N O P Q R S T U V W X Y Z