Guitaretab - guitar tabs
Song name
# A B C D E F G H I J K L M N O P Q R S T U V W X Y Z

Superjoint Ritual - Messages tab

Band- Superjoint Ritual
Song- Messages

Drop C# tuning

(At the start rest you hand on the strings, slide, and pick)

Intro
-|----------------------------------------------------------|----------------|
-|--------------------/13----12-----------------------------|----------------|
-|-10---9---10---9-----------------14-14---12-14---10----9--|----------------|
-|----------------------------------------------------------|----------------|
-|----------------------------------------------------------|----------------|
-|----------------------------------------------------------|----------------|

Verse x8
-|--------------------------------|-------------------------------------------|
-|--------------------------------|-------------------------------------------|
-|--------------------------------|-------------------------------------------|
-|--------------------------------|-------------------------------------------|
-|-3/6--6--6--6--3-3-3-0-3-3-3-0--|-------------------------------------------|
-|-3/6--6--6--6--3-3-3-0-3-3-3-0--|-------------------------------------------|

Fill 1
-|------------------------------|---------------------------------------------|
-|------------------------------|---------------------------------------------|
-|------------------------------|---------------------------------------------|
-|------------------------------|---------------------------------------------|
-|-8888888888888888-7-7-7-7-7-7-|---------------------------------------------|
-|-8888888888888888-7-7-7-7-7-7-|---------------------------------------------|

Verse x4
Fill 1
[ Tab from: http://www.guitaretab.com/s/superjoint-ritual/57069.html ]
Riff 1a x4
-|----------------------------|-----------------------------------------------|
-|----------------------------|-----------------------------------------------|
-|----------------------------|-----------------------------------------------|
-|----------------------------|-----------------------------------------------|
-|-0--3--1--0-----0--4--2--0--|-----------------------------------------------|
-|-0--3--1--0-----0--4--2--0--|-----------------------------------------------|

Fill 2
-|---------------------------------------|------------------------------------|
-|-----11-------11-------11-------11-----|------------------------------------|
-|--11-------11-------11-------11--------|------------------------------------|
-|--------12-------12-------12-------12--|------------------------------------|
-|---------------------------------------|------------------------------------|
-|---------------------------------------|------------------------------------|

Riff 1b x4
-|----------------------------|-----------------------------------------------|
-|----------------------------|-----------------------------------------------|
-|----------------------------|-----------------------------------------------|
-|----------------------------|-----------------------------------------------|
-|-0-3-1----------2-4--0-0-0--|-----------------------------------------------|
-|-0-3-1--0000000-2-4--0-0-0--|-----------------------------------------------|

riff 1c x2
-|-------------------------------------------------------|--------------------|
-|-------------------------------------------------------|--------------------|
-|-------------------------------------------------------|--------------------|
-|-------------------------------------------------------|--------------------|
-|-0-3-1--0--0--0--0--0--0--0-0-4-2--0--0--0--0--0--0--0-|--------------------|
-|-0-3-1--0--0--0--0--0--0--0-0-4-2--0--0--0--0--0--0--0-|--------------------|
Related for Messages tab
Advertisement will be closed in 10 seconds