Song name
# A B C D E F G H I J K L M N O P Q R S T U V W X Y Z

Superjoint Ritual - Stupid Stupid Man tab

Band- Superjoint Ritual
Song- Stupid Stupid Man

Drop C# tuning
(thats: C# G# C# F# A# D#)

Intro/Bridge I
-|--------------|-------------------------------------------------------------|
-|--------------|-------------------------------------------------------------|
-|--------------|-------------------------------------------------------------|
-|-0---0000-0---|-x4----------------------------------------------------------|
-|-5---5555-4---|-------------------------------------------------------------|
-|-5---5555-5---|-------------------------------------------------------------|
Pm     ....

Preverse
-|-----------------------------------------|----------------------------------|
-|-----------------------------------------|----------------------------------|
-|-----------------------------------------|----------------------------------|
-|-----------------------------------------|-x4-------------------------------|
-|-----2-----4-----2-----4-----2-----------|----------------------------------|
-|-5-5---5-5---5-5---5-5---5-5---5---------|----------------------------------|

Verse
-|---------------------------------|------------------------------------------|
-|---------------------------------|------------------------------------------|
-|---------------------------------|------------------------------------------|
-|---------------------------------|-x4---------------------------------------|
-|---------------------------------|------------------------------------------|
-|-0-0-3-0-0-6-0-0-3-0-0-6-0-0-3-0-|------------------------------------------|

Chorus
-|---------------------------------|------------------------------------------|
-|---------------------------------|------------------------------------------|
-|---------------------------------|------------------------------------------|
-|---------------------------------|-x2---------------------------------------|
-|-0-0-3-0-0-6-0-0-3-0-0-6-0-0-----|------------------------------------------|
-|-0-0-3-0-0-6-0-0-3-0-0-6-0-0-3---|------------------------------------------|
pm . . . . . . . . . . . . . .

Bridge I x4
Preverse x4
Verse x4
Chorus x2

Bridge II
-|------------------------------|---------------------------------------------|
-|------------------------------|---------------------------------------------|
-|------------------------------|---------------------------------------------|
-|-0----------------------------|-x8------------------------------------------|
-|-0---0-0-0--0-3h5-2h4-1h3-0h2-|---------------------------------------------|
-|-0---0-0-0--0-----------------|---------------------------------------------|

Bridge III
-|------------------------------|---------------------------------------------|
-|------------------------------|---------------------------------------------|
-|------------------------------|---------------------------------------------|
-|-0--------------000000000000--|-x6-(repeat last note)-----------------------|
-|-0--xxx-x-0-0-0-444444444444--|---------------------------------------------|
-|-0--xxx-x-0-0-0-555555555555--|---------------------------------------------|
pm    ... . . . .
Tap to rate this tab
 
# A B C D E F G H I J K L M N O P Q R S T U V W X Y Z