Song name
# A B C D E F G H I J K L M N O P Q R S T U V W X Y Z

Superjoint Ritual - Antifaith tab

D tuning

Inro/Verse
-|-----------------------------------|----------------------------------------|
-|-----------------------------------|----------------------------------------|
-|-----------------------------------|----------------------------------------|
-|-3---6--------3---6------8-9-8-9---|--x6------------------------------------|
-|-3---6--------3---6------8-9-8-9---|----------------------------------------|
-|-1---4--------1---4------6-7-6-7---|----------------------------------------|

Prechorus
-|------------------------|-----------------------------------------------|---|
-|------------------------|-----------------------------------------------|---|
-|------------------------|-----------------------------------------------|---|
-|------------------------|------------------------4--3--4--3--4--3--4--3-|---|
-|-4--5--4--5--4--5--4--5-|-4--3--4--3--4--3--4--3------------------------|---|
-|------------------------|-----------------------------------------------|---|

Chorus
-|-------------------------|--------------------------------------------------|
-|-------------------------|--------------------------------------------------|
-|-------------------------|--------------------------------------------------|
-|-5--6--5--6--5--6--5--6--|-x2-----------------------------------------------|
-|-3--4--3--4--3--4--3--4--|--------------------------------------------------|
-|-------------------------|--------------------------------------------------|

Verse x4
Prechorus
Chorus x2

Bridge I                                    Fill
-|--------------------------------|--------|----------|----------------------------|
-|--------------------------------|--------|----------|----------------------------|
-|--------------------------------|--------|----------|----------------------------|
-|---------------------------------------------------------------------------------|x1
1/2-|-/6-4-----|-------------------------------------------------------------------|
-|--------------------------------|--------|----------|----------------------------|
-|-3-2-1-3-2-1-3-2-2-1-0-2-1-0-2-1|--------|------6-4-|----------------------------|

Bridge II
-|---------------------------------|----|
-|---------------------------------|----|
-|---------------------------------|----|
-|---------------------------------|-x--|1 1/2 +Fill (listen to
it)-------------------------------------|
-|-------3-2-1---1-------2-1-0---0-|----|
-|-3-2-1-------3---2-1-0-------2---|----|

Bridge I x1 1/2 +Fill
Bridge II x1 1/2 +Fill
Tap to rate this tab
# A B C D E F G H I J K L M N O P Q R S T U V W X Y Z