Song name
# A B C D E F G H I J K L M N O P Q R S T U V W X Y Z

Superjoint Ritual - Superjoint Ritual tab

Drop C# tuning

Intro x8
-|----------------|-----------------------------------------------------------|
-|----------------|-----------------------------------------------------------|
-|----------------|-----------------------------------------------------------|
-|-5-4-5--5--5555-|-----------------------------------------------------------|
-|-3-2-3--3--3333-|-----------------------------------------------------------|
-|----------------|-----------------------------------------------------------|


Riff 1 x6
-|--------|-------------------------------------------------------------------|
-|--------|-------------------------------------------------------------------|
-|--------|-------------------------------------------------------------------|
-|--------|-------------------------------------------------------------------|
-|-1///4--|-------------------------------------------------------------------|
-|-1///4--|-------------------------------------------------------------------|


Riff 2a x2                        Fill 1
-|-----------------------------|------------|---------------------------------|
-|-----------------------------|------------|---------------------------------|
-|-----------------------------|------------|---------------------------------|
-|-----------------------------|---3--4--5--|---------------------------------|
-|-5--8--5--4--7--4----3---6-3-|---1--2--3--|---------------------------------|
-|-------------------5---------|------------|---------------------------------|

Riff 2a x2 then Fill 1

Fill 2
-|--------------------------|-------------------------------------------------|
-|--------------------------|-------------------------------------------------|
-|--------------------------|-------------------------------------------------|
-|--------------------------|-------------------------------------------------|
-|--------------------------|-------------------------------------------------|
-|--/12-0---/15-0---/17-0---|-------------------------------------------------|


Riff 2b x2                        Fill 3
-|-----------------------------|----------------|-----------------------------|
-|-----------------------------|----------------|-----------------------------|
-|-----------------------------|----------------|-----------------------------|
-|-----------------------------|----------------|-----------------------------|
-|-----------------------------|--1-1--2-2--3-3-|-----------------------------|
-|-5--8--5--4--7--4--0-3---6-3-|--1-1--2-2--3-3-|-----------------------------|

Riff 2b x2 then Fill 3

Riff 2a x2 (No fills)

Riff 1 x6

Riff 2a x2 then Fill 1
Riff 2a x2 then Fill 1
Fill 2
Riff 2b x2 then Fill 3
Riff 2b x2 then Fill 3
Riff 2a x2 (no fills)

Riff 1 x8


        Riff 3 x4
-|-----|-------------------------------|--------------------------------------|
-|-----|-------------------------------|--------------------------------------|
-|-----|-------------------------------|--------------------------------------|
-|-----|-------------------------------|--------------------------------------|
-|---1-|-4---4-4-4-4-4-4-4-4-4-4-4-4-1-|--------------------------------------|
-|---1-|-4---4-4-4-4-4-4-4-4-4-4-4-4-1-|--------------------------------------|
     ^
     |lead-in note


Intro x8

(riff 4 has several variations, i just put them all in for completeness)

Riff 4a x4
-|-----------------------------------------|----------------0-0-0-0-0-0-0-0-0-|
-|-----------------------------------------|----------------0-0-0-0-0-0-0-0-0-|
-|-----------------------------------------|----------------0-0-0-0-0-0-0-0-0-|
-|-----------------------------------------|----------------------------------|
-|-----------------000-000---000-000-000-0-|----------------------------------|
-|-3---2---6---0---000-000---000-000-000-0-|-3---2---6---0--------------------|
pm                 ... ...   ... ... ... .


Fill 4
-|-----------------------|----------------------------------------------------|
-|--10-----10-----12-----|----------------------------------------------------|
-|--12b----12b----13b----|----------------------------------------------------|
-|-----------------------|----------------------------------------------------|
-|-----------------------|----------------------------------------------------|
-|-----------------------|----------------------------------------------------|


Riff 4b x1
-|--------------------------------------------------|---------------0-0-0-0---|
-|--------------------------------------------------|---------------0-0-0-0---|
-|--------------------------------------------------|---------------0-0-0-0---|
-|--------------------------------------------------|-------------------------|
-|-----------------0-0-0-0-0---0-0-0-0-0---0-0-0-0--|-------------------------|
-|-3---2---6---0---0-0-0-0-0---0-0-0-0-0---0-0-0-0--|-3---2---6---0-----------|
pm                 . . . . .   . . . . .   . . . .


-0-0-0-0-0-|------------------------------------------------------------------|
-0-0-0-0-0-|------------------------------------------------------------------|
-0-0-0-0-0-|------------------------------------------------------------------|
-----------|------------------------------------------------------------------|
-----------|------------------------------------------------------------------|
-----------|------------------------------------------------------------------|

riff 4c x3
-|-----------------------------------------------------|---------------0-0-0--|
-|-----------------------------------------------------|---------------0-0-0--|
-|----------------------------x-x----------------------|---------------0-0-0--|
-|----------------------------x-x----------------------|----------------------|
-|-----------------0-0-0-0-0--x-x--0-0-0-0-0---0-0-0-0-|----------------------|
-|-3---2---6---0---0-0-0-0-0--x-x--0-0-0-0-0---0-0-0-0-|-3---2---6---0--------|
pm                 . . . . .       . . . . .   . . . .


-0-0-0-0-0-0-|----------------------------------------------------------------|
-0-0-0-0-0-0-|----------------------------------------------------------------|
-0-0-0-0-0-0-|----------------------------------------------------------------|
-------------|----------------------------------------------------------------|
-------------|----------------------------------------------------------------|
-------------|----------------------------------------------------------------|
Tap to rate this tab
# A B C D E F G H I J K L M N O P Q R S T U V W X Y Z