Song name
# A B C D E F G H I J K L M N O P Q R S T U V W X Y Z

Superjoint Ritual - 4 Songs tab

                          Superjoint Ritual
                              4 Songs

Tuning: Standard


b- bend
p- pull off
/- slide up


--------------------------|
--------------------------|
--------------------------|
-5-5--5-------------------|
-3-3--3--6-6--6---3-3-3-3-|
---------4-4--4---1-1-1-1-|

"you never looked better..."
-----------------------------------|
-----------------------------------|
-----------------------------------|
-5-5--5--6-6--6--------------------|
-3-3--3--4-4--4----6-6-6-6-6-6-6-6-|
-------------------4-4-4-4-4-4-4-4-|


-----------------------------------|
-----------------------------------|
-----------------------------------|
-5-5--5--6-6--6--------------------|
-3-3--3--4-4--4----4-4-4-4-4-4-4-4-|
-------------------2-2-2-2-2-2-2-2-|

-------------------------------------|
-------------------------------------|
-------------------------------------|
-------------------------------------|
-3-2-2-3-2-2-3-2-2-3-2-2-3-2-3-2-3-2-|
-1p0-0-1p0-0-1p0-0-1p0-0-1p0-1p0-1p0-|
 


----------------|---------------------------------|
----------------|---------------------------------|
----------------|---------------------------------|
----------------|---------------------------------|
-13-12-10-2-2-2-|-4-4-4-4-4-4-4-4-3-3-3-3-3-3-3-3-|
-11-10-8--0-0-0-|-2-2-2-2-2-2-2-2-1-1-1-1-1-1-1-1-|



-----------------------------------------|
-----------------------------------------|
-----------------------------------------|
-----------------------------------------|
-----------------------------------------|
-4b-0-0-00-4b-0-0-00-4b-0-0-00-4b-0-0-00-|

             
-----------|-----------------|
-----------|-----------------|
-----------|--5-6-7--6---6---|
-----------|-----------7---7-|
-5-3--6-4--|-----------------|
-3-1--4-2--|-0---------------|


---------------------------|-------------------|
---------------------------|-------------------|
---------------------------|-------------------|
-----------------------4b--|-------4b-------6b-|
-8--5--3--5--4-------------|-------------------|
-6--3--5--3--2---0-2-0-----|-0-2-0----0-2-0----|



--------------------------------------------------------|
--------------------------------------------------------|
--------------------------------------------------------|
-8-7-----------8-7-----------8-7-----------8-7----------|
-6-5-8---------6-5-8---------6-5-8---------6-5-8--------|
-----6--0-000------6--0-000------6--0-000------6--0-000-|

--------------------------------------------------------|
--------------------------------------------------------|
--------------------------------------------------------|
10-9----------10-9----------10-9----------10-9----------|
-8-7-10--------8-7-10--------8-7-10--------8-7-10-------|
-----8--0-000------8--0-000------8--0-000------8--0-000-|


----------------------------------------------------------|
----------------------------------------------------------|
----------------------------------------------------------|
------------------5--7/--------------5--------------------|
----2-2-2-2-2--------7/--2-2-2-2-------7--5-7-5-7-5-7-5-3-|
-4b-0-0-0-0-0-5-7--------0-0-0-0-5-7----------------------|

--------|
--------|
--------|
--------|
-5--6-6-|
-3--4-4-|



-----------------------------------|
-----------------------------------|
-----------------------------------|
-----------------------------------|
-5--3--2--2--2---6--4--2-2-2-2-2-2-|
-3--1--0--0--0---4--2--0-0-0-0-0-0-|
          

pick fast
--------------|
--------------|
--------------|
--------------|
-555555888888-|
--------------|

METAL IN YOUR FACE
-----------------------------------------|
-----------------------------------------|
----------5-5/6--5-------------4-4b-0----|
-5-6---6b----------0--5-6---5b-----------|
-----0--------------------0--------------|
-----------------------------------------|

----------------------------|
----------------------------|
----------------------------|
----------------------------|
-2-2-2--5-5-5--2-2-2--6-6-6-|
-0-0-0--3-3-3--0-0-0--4-4-6-|
  
Tap to rate this tab
# A B C D E F G H I J K L M N O P Q R S T U V W X Y Z