Song name
# A B C D E F G H I J K L M N O P Q R S T U V W X Y Z

Superman Is Dead - Here I Am tab

Song        : Here I Am
Artist      : Superman Is Dead
Tabbed by   : yoos
Email       : yoos_yoes@yahoo.com
Web site    : www.geocities.com/yoos_yoes


Fig1
e|-----------------------|
B|-----------------------|
G|-----------------------|
D|------4------4------4--|
A|--5-7----5h7----5h7----|
E|-----------------------|

Fig2
e|----------------------------------------------------------------|
B|----------------------------------------------------------------|
G|----------------------------------------------------------------|
D|------4------5---4-4-7-5--5-4--------4------5---4-4--4-5-4------|
A|--5-5---7--7---7--------------7--5-5---7--7---7------------7-5--|
E|----------------------------------------------------------------|

===================================================================

G5 F#5 E5 F#5
D5 F#5 G5 A5 3x
G5 F#5 E5 F#5

D5            A5            B5            G5
Sitting in my room, staring at the walls again,
D5            A5            B5            G5
i'm bored as fuck listening to the same punk band,
   D5               A5
my shoes are on the floor,
   B5           G5
my boxer on the door,
D5       A5
i got no time to listen,
B5           G5
fuck'em many more,

F#5    G5  A5
here i am, staring at the walls again,
F#5    G5  D5 (Fig1)
here i am, wasting time in my youth time,
F#5    G5  A5
here i am, start to jerking off again,
F#5    G5  A5
here i am, its me will get me outta this scene,

D5 F#5 G5 A5 3x
G5 F#5 E5 F#5

D5            A5           B5                G5
waiting for a call, but at last she makes me fall,
D5           A5    B5         G5
i guess i've got a missery of love,
D5                  A5
i feel my head gets burn,
   B5              G5
my whole body gets cut 
   D5       A5
my spirit's gone,
         B5              G5
hey you! Come and get it back

D5
start to jerkimg off again,
    F#5
coz got no thick in my hand,
G5
sitting here alone again,
A5
staring to those stuff again, 
D5
listen to that punk again, 
F#5
get hurt at my fucking ear,
G5
thats all about me,
A5
mutha mutha fucka!

Tap to rate this tab
# A B C D E F G H I J K L M N O P Q R S T U V W X Y Z