Song name
# A B C D E F G H I J K L M N O P Q R S T U V W X Y Z

Superman Is Dead - Year Of The Danger tab

intro
e|------0--------------------------------------------------------|
B|-------0-------------------------------------------------------|
G|1-111---1-1-111-11-1111-20-----20-----20-----------------------|
D|2-222-----2-222-22-2222---320----320----320--3-3355552-------- |
A|2-222-----2-222-22-2222------2------2------2-3-1155552---------|
E|0-000-----0-000-00-0000----------------------1-1133550---------|

e|20-----20-----20-----------------------------------------------|
B|--320----320----320--------------------------------------------|
G|-----2------2------2-------------------------------------------|
D|--------------------3-3-335555-[7-77-7-5]5x--------------------|
A|--------------------3-3-115555-[7-77-7-5]5x--------------------|
E|--------------------1-1-113333-[5-55-0-3]5x--------------------|

afx nasumamata
Phone : 081242546974
E-mail:lord_afx@yahoo.com
Song :Intro Year Of The Danger
Tap to rate this tab
 
# A B C D E F G H I J K L M N O P Q R S T U V W X Y Z