Song name
# A B C D E F G H I J K L M N O P Q R S T U V W X Y Z

Superman Is Dead - Saint Of My Life tab

Song	   : Saint Of My Life
Artist	   : Superman Is Dead
Albums	   : Angels and The Outsiders
Editor by  : yoos
Blog       : yoosyoes.blogspot.com

Note :
Tab ini, aslinya dibuat ma afx (lord_afx@yahoo.com)
cuma dibuat simple (baca: diedit dikit) ma yoos
makanya diatas bukan "Tabbed by" tapi "Editor by"

Tab aslinya sebenernya ga ada yang salah
cuman menurut yoos (dari yang request juga) agak sulit
makanya yoos buat simple

Oh ya sekedar info, afx itu suhu gitarnya yoos
yoos pernah satu band dengan afx di nasumamata
kalau menurut yoos, afx drummer ke-2 setelah jerinx
ke-3 nya yoos hehe.... (pegang drum aja ga pernah, klo drum minyak iya)

Sorry notenya kepanjangan
cheers...



intro solo guitar
e|-------------------------------------------------------------------------|
B|-----8------8----8-10-10/12-10----10-12-12/13---12-13-12-10-13-12h13p12--|
G|--7-------7----7---------------------------------------------------------|
D|-------------------------------------------------------------------------|
A|-------------------------------------------------------------------------|
E|-------------------------------------------------------------------------|

e|---------------------------------------------------------------------|
B|-----8----8---8----8----8-10-10/12-10--8-10-8------------------------|
G|--7-----7---7----7----7-----------------------9-7-9---4h5p4----------|
D|------------------------------------------------------------5--7--5--|
A|---------------------------------------------------------------------|
E|---------------------------------------------------------------------|

                   G5
good night good night my little angel

                   D5
good night good night my little ones

            C5
spread your wings and fly

 D5          G5
away to your dreams

            G5
when you're sleep i'm on your side

             D5
when you're awake i'll be your still

           C5          D5        G5
close your eyes put a smile on your face

         E5
don't be scared coz

C5      G5                D5
i'll be there to hold you tight

           E5              C5
you're the king you're the queen

       G5           D5
you're saint of my life

             E5       C5
and when the world is trembling

G5             D5
down don't you cry

            E5      C5
coz there's nothing nothing

     G            D5    C5B5
that will keep us apart

          G5
sing with me my little darling

      D5
sing along to this lullabies

         C5            D5          G5
pick the moon kiss the star so good night


sOLO GUITAR
e|---------------------------------------------------------------|
B|--------8---------------8---8/10------8--------7------------8--|
G|--/7--9---9--7----/7--9---9--------9----9---7----7-----7-------|
D|-----------------------------------------------------9---9-----|
A|---------------------------------------------------------------|
E|---------------------------------------------------------------|

e|--/7-------------/7-------------------------------------------------|
B|------10-8----------10-8-----------8----------10--------------------|
G|-----------9-------------9-7---/9----9---/11-----11-------4--5-4----|
D|-------------9-----------------------------------------5---------5--|
A|--------------------------------------------------------------------|
E|--------------------------------------------------------------------|


Outro
e|--------------------|
B|--------------------|
G|--------------------|
D|-----------------2--|
A|--2--------------2--|
E|-----5--3--2~----0--|
Tap to rate this tab
 
# A B C D E F G H I J K L M N O P Q R S T U V W X Y Z