Song name
# A B C D E F G H I J K L M N O P Q R S T U V W X Y Z

Superman Is Dead - Sunset Di Tanah Anarki tab

Sunset Di Tanah Anarki 

Solo

e|--------------------------------------------------------------------------------------|
B|--------------------------------------------------------------------------------------|
G|-5-4-2---------2-5-4-2----------------4-2------------------2--------------------------|
D|-------2-3---3---------5-3-3-/5---2-5-----5-3-2-2-/3-----3---5-5-5-3-2-2--2-2-3-3-/5--|
A|-------------------------------------------------------5------------------------------|
E|--------------------------------------------------------------------------------------|

e|-----5---------7-5---5-7-8-7--7-10-10---|
B|-8-8---8-5------------------------------|
G|-----------7-5--------------------------|
D|----------------------------------------|
A|----------------------------------------|
E|----------------------------------------|

Outro

e|-------------------------------------|
B|-------------------------------------|
G|-5-4-2---------2-5-4-2----------4--2-|
D|-------2-3---3---------5-3-3-/5----- |
A|-------------------------------------|
E|-------------------------------------|
Tap to rate this tab
# A B C D E F G H I J K L M N O P Q R S T U V W X Y Z