Song name
# A B C D E F G H I J K L M N O P Q R S T U V W X Y Z

Superman Is Dead - Kuta Rock City tab

Help us improve GuitareTab! Take a short survey!
Guitar Solo Kuta Rock City by Superman Is Dead

Do this first
                     
|-2-4---4-5-4-2----------|-2-4---4-5-4-5-7--------|
|-----5------------------|-----5------------------|
|---------------4--------|------------------------|
|------------------------|------------------------|
|------------------------|------------------------|
|------------------------|------------------------|
                      
|-2-4---4-5-4-2----------|-2-4---4-5-4-5-7--5-4-5-4-5-7--|
|-----5------------------|-----5-------------------------|
|---------------4--------|-------------------------------|
|------------------------|-------------------------------|
|------------------------|-------------------------------|
|------------------------|-------------------------------|
                                              
|-5-4-5-4-5-7--5-4-5-4-5-9-9--11-12-7--4-5-7-5-4-2-5-----|
|--------------------------------------------------------|
|--------------------------------------------------------|
|--------------------------------------------------------|
|--------------------------------------------------------|
|--------------------------------------------------------|

ending guitar solo

|-2-4---4-5-4-2----------|-2-4---4-5-4-5-7--------|
|-----5------------------|-----5------------------|
|---------------4--------|------------------------|
|------------------------|------------------------|
|------------------------|------------------------|
|------------------------|------------------------|
                      
|-2-4---4-5-4-2----------|-2-4---4-5-4-5-7--5-4-5-4-5-7--|
|-----5------------------|-----5-------------------------|
|---------------4--------|-------------------------------|
|------------------------|-------------------------------|
|------------------------|-------------------------------|
|------------------------|-------------------------------|

|-5-4-5-4-5-7--5-4-5-4-5-|-----|
|------------------------|-----|
|------------------------|-----|
|------------------------|--2--|
|------------------------|--2--|
|------------------------|--0--|

please, enjoy this tab and fix with your own guitar settings.
I would like to say thanks to my spelanta
Related for Kuta Rock City tab