Song name
# A B C D E F G H I J K L M N O P Q R S T U V W X Y Z

Superman Is Dead - Rock N Roll Band tab

Guitar Solo Rock 'n Roll Band by Superman Is Dead

                     
    |-3-|     |-3-| 
|------------------------------------|
|------------------------------------|
|------------------------------------|
|-3---------3---------3---3---3-5-7--|
|---3-3-3-3---3-3-3-3---3---3--------|
|------------------------------------|

    |-3-|     |-3-| 
|------------------------------------|
|------------------------------------|
|------------------------------------|
|-3---------3---------3---3-7-5-2-3--|
|---3-3-3-3---3-3-3-3---3------------|
|------------------------------------|
  
  |-3-|  |-3-|  |-3-|  |-3-|  |-3-|                    
|-----------------------------------------------|
|-----------------------------------------------|
|-----------------------------------------------|
|-7-7-7--5-5-5--3-3-3---------------------------|
|----------------------7-7-7--5-5-5--3-3-5-3-3--|
|-----------------------------------------------|

  |-3-|  |-3-|  |-3-|  |-3-|  |-3-|  |-3-|                    
|-----------------------------------------------------|
|-----------------------------------------------------|
|-----------------------------------------------------|
|-5-5-5--3-3-3--2-2-2----------------3-3-3--5-3-7-----|
|----------------------5-5-5--3-3-3-------------------|
|-----------------------------------------------------|

  |-3-|  |-3-|  |-3-|  |-3-|  |-3-|                    
|-----------------------------------|------|
|-----------------------------------|------|
|-----------------------------------|--8---|
|-7-7-7--5-5-5--3-3-3-----------5-5-|--8---|
|----------------------7-7-7--5-----|--6---|
|-----------------------------------|------|

|-3-| : in this session you must up-down strokes
and enjoy this tab and fix with your own guitar settings
Tap to rate this tab
# A B C D E F G H I J K L M N O P Q R S T U V W X Y Z