Guitaretab - guitar tabs
Song name
# A B C D E F G H I J K L M N O P Q R S T U V W X Y Z

Superman Is Dead - Disposable Lies tab

Song		: Disposable Lies
Artist	        : Superman Is Dead
Tabbed by	: yoos
Email		: yoos_yoes@yahoo.com
Web site	: www.geocities.com/yoos_yoes


Fig1
e|----------------------------------------------------------------------------------|
B|----------------------------------------------------------------------------------|
G|----------------------------------------------------------------------------------|
D|--------------------------------------------------------------------------------2-|
A|-3h5-/7-3-3-3--/5-3-2-2-2--/3-2---------------3h5-/7-3-3-3--/5-3-2-2-2--/3-2------|
E|--------------------------------5-5-5--5-5-5----------------------------------5---|

Fig2										C
e|-----0---|							e|-----0---|
B|---1---1-|							B|---1---1-|
G|---------| -> match y with the chord. Ex:	G|---------|
D|---------|							D|---------|
A|-y-------|							A|-3-------|
E|---------|							E|---------|

Fig3
e|----------------------------------------------------------|
B|----------------------------------------------------------|
G|--------------------------------------------5---5-7-5-5-5-|
D|-----------------------------------5---5-/7---7-----------|
A|-3-5-/7-2-3-/5---2-3--3-2-----5-/7---7--------------------|
E|---------------5----------5-3-----------------------------|

e|------------------------------------------------------------------|
B|------------------------------------------------------------------|
G|-/10-10-10-9-9-9-9h10-9-7-7-7-7h9-7-5-5-5-----5-----5-----5-----5-|
D|------------------------------------------5h7---5h7---5h7---5h7---|
A|------------------------------------------------------------------|
E|------------------------------------------------------------------|
[ Tab from: http://www.guitaretab.com/s/superman-is-dead/94716.html ]
e|-----------------------------------------------------------|
B|-----------------------------------------------------------|
G|-----5---5------5---5------5---5-7-5-/9-9-9-7-5---7-7-/9-7-|
D|-5h7---7----5h7---7----5h7---7------------------7----------|
A|-----------------------------------------------------------|
E|-----------------------------------------------------------|

Fig4
e|------8--8-7-5-------5--5--------------------------------------------------|
B|-/8-8----------8-5-8------8-6-5--5-------5-------5------6-5---5------------|
G|-----------------------------------7-5-7---7-5-7---7-5------7---7-5-4h5-5~-|
D|---------------------------------------------------------------------------|
A|---------------------------------------------------------------------------|
E|---------------------------------------------------------------------------|


Intro:
Fig1
(Fig2)
C5 E5 F5

C5	E5				A5	  B5
However much you want to show that
C5		E5			F5			G5
You keep me inside and what you really care
(Fig2)
C5		E5			A5		B5
Have a close look deep into your flame
C5		E5		F5			G5
Time is running out, nothing to hide away

**
F5 G5
I know weíre both all right
	C5			E5
Itís time to go, start running around
	A5			F5
Do it faster that I write 
		C5			E5
Leave it all behind, all the things weíve burnt
		F5		G5
Cruising down the memory
	C5			E5
Itís time to go, start running around
	A5			F5
Do it faster that I write
		G5
Since I donít know what the last
Heavenís got it all

Fig1
(Fig2)
C5 E5 F5

C5		E5			A5		B5
Picking up the way back to get home
C5		E5			F5		G5
Itís the hardest thing that we think all night
(Fig2)
C5	E5				A5	B5
Anything could be the adventure
C5		E5		F5		G5
Itís all growing and beyond the tragedy

Back to **

Fig3
C5 E5 F5

		G5
Since I donít know what the last
		G5
Since I donít know what the lies
		G5
Hell! I donít know what the nice
Heavenís got it all

Outro:
(Fig2)
C5 E5 F5

Fig4
(Fig2)
C5 E5 A5 F5 C5 E5 A5 F5 G5 C5

Related for Disposable Lies tab