Song name
# A B C D E F G H I J K L M N O P Q R S T U V W X Y Z

Supermen - Where Would We Be tab

G
What would happen
       C
If the south won the Civil War
               A
Where would we be
          D
Would you be me

G
What would happen
       C
If you weren't with me
              A
Where would I be
              D
Sadness would reach me

B
But not to be selfish
   G
It is just this
        A    Em
I can't stop thinking about you
                 C   F7   C
You're my number one wish

Solo
---------------------------------|
12-11-10----------12-11-10-------|
---------12-11-12----------12-11-|
---------------------------------|
---------------------------------|
---------------------------------|

---------------------------------|
------------------------12-11-10-|
10-11-10-11-10-11-10-11----------|
---------------------------------|
---------------------------------|
---------------------------------|

----------------------------------|
12-11-10-----------12-11-10-------|
---------12-11-9-7----------12-11-|
----------------------------------|
----------------------------------|
----------------------------------|

--10-12-|
--------|
9-------|
--------|
--------|
--------|

G
What would happen
       C               Em
If the world stopped tomorrow
C               A
Where would you be
             D
Would you be with me
   G5
In Heaven is where I'd be

Then the solo again
Tap to rate this tab
 
# A B C D E F G H I J K L M N O P Q R S T U V W X Y Z