Song name
# A B C D E F G H I J K L M N O P Q R S T U V W X Y Z

Supermen - Play Is Over tab

Help us improve GuitareTab! Take a short survey!
Verse

--------------------------------|
--------------------------------|
5-5-5-5-3-3-3-3-----------------|
5-5-5-5-3-3-3-3-3-3-3-3-5-5-5-5-|
3-3-3-3-1-1-1-1-3-3-3-3-5-5-5-5-|
----------------1-1-1-1-3-3-3-3-|

Chorus
--------------------------------|
--------------------------------|
--------------------------------|
----5-------3-------------------|
--5---5---3---3-----------------|
3-------1-----------------------|

That's it
Related for Play Is Over tab