Song name
# A B C D E F G H I J K L M N O P Q R S T U V W X Y Z

Supernova - Be Yourself tab

No one has done this right yet anywhere on the net, so here ya go:
If u like it, email me at guns_n_roses_131@hotmail.com
m=mute

e------------------------------------------------------------|
B---2--2--2--2-m-2-------------------------------------------|
G---2--2--2--2-m-2-------------------------------------------|
D---4--4--4--4-m-4-------------------------------------------|
A---4--4--4--4-m-4-------------------------------------------|
E---2--2--2--4-m-2-------------------------------------------|
Repeat 4 times

e---------4--4-----------------------------------------------|
B---------4--4---2--2--2--2----------------------------------|
G---6--6--6--6---2--2--2--2----------------------------------|
D---7--7--6--6---4--4--4--4----------------------------------|
A---7--7--4--4---4--4--4--4----------------------------------|
E---5--5---------2--2--2--2----------------------------------|
Repeat 4 times

e------------------------------------------------------|
B------------------------------------------------------|
G--------------2---------------------------------------|
D--2--2--4--4--2----4----------------------------------|
A--2--2--4--4--0----4----------------------------------|
E--0--0--2--2-------2----------------------------------|
repeat three tmes, then end with:
e--------|
B--------|
G--------|
D---6----|
A---6----|
E---4----|

e------------------------------------------------------|
B------------------------------------------------------|
G-6666666----------------------------------------------|
D-6666666--7-7-7-7-7--2--2--2--2-6---------------------|
A-4444444--7-7-7-7-7--2--2--2--2-6---------------------|
E----------5-5-5-5-5--0--0--0--0-4---------------------|
repeat twice then end with:
e------------------------------------------------------|
B------------------------------------------------------|
G------------------------------------------------------|
D--6--6-6-6-6-6-6-6-6----------------------------------|
A--6--6-6-6-6-6-6-6-6----------------------------------|
E--4--4-4-4-4-4-4-4-4----------------------------------|

e---------4--4--------------------------------------------|
B---------4--4---2--2--2--2-------------------------------|
G---6--6--6--6---2--2--2--2-------------------------------|
D---7--7--6--6---4--4--4--4-------------------------------|
A---7--7--4--4---4--4--4--4-------------------------------|
E---5--5---------2--2--2--2-------------------------------|
Repeat 8 times


e------------------------------------------------------|
B------------------------------------------------------|
G--------------2---------------------------------------|
D--2--2--4--4--2----4----------------------------------|
A--2--2--4--4--0----4----------------------------------|
E--0--0--2--2-------2----------------------------------|
repeat three tmes, then end with:
e--------|
B--------|
G--------|
D---6----|
A---6----|
E---4----|

e------------------------------------------------------|
B------------------------------------------------------|
G-6666666----------------------------------------------|
D-6666666--7-7-7-7-7--2--2--2--2-6---------------------|
A-4444444--7-7-7-7-7--2--2--2--2-6---------------------|
E----------5-5-5-5-5--0--0--0--0-4---------------------|
repeat twice then end with:
e------------------------------------------------------|
B------------------------------------------------------|
G------------------------------------------------------|
D--6--6-6-6-6-6-6-6-6----------------------------------|
A--6--6-6-6-6-6-6-6-6----------------------------------|
E--4--4-4-4-4-4-4-4-4----------------------------------|

e-----------------------------------|
B--4-4-4-4-4-4-4-4------------------|
G--6-6-6-6-6-6-6-6-2-2-2-2-4-4-4-4--|
D--6-6-6-6-6-6-6-6-4-4-4-4-6-6-6-6--|
A--4-4-4-4-4-4-4-4-4-4-4-4-6-6-6-6--|
E------------------2-2-2-2-4-4-4-4--|
repeat 3 times

e-----------------------------------|
B-----------------------------------|
G-6666666---------------------------|
D-6666666--7-7-7-7-7--2--2--2--2-6--|
A-4444444--7-7-7-7-7--2--2--2--2-6--|
E----------5-5-5-5-5--0--0--0--0-4--|
repeat twice then end with:
e----------------------|
B----------------------|
G----------------------|
D--6--6-6-6-6-6-6-6-6--|
A--6--6-6-6-6-6-6-6-6--|
E--4--4-4-4-4-4-4-4-4--|

End the song with

e-----
B-----
G-----
D--4--
A--4--
E--2--
Tap to rate this tab
# A B C D E F G H I J K L M N O P Q R S T U V W X Y Z