Song name
# A B C D E F G H I J K L M N O P Q R S T U V W X Y Z

Supernova - Its All Love tab

heres the lead guitar to It's All Love
Standard Tuning


Verse
e|-------------------------------------------------------------------|
B|------7--------7--------4---------3--------------------------------|
G|----8--8-----8---8----5---5-----4---4------------------------------|
D|--9-------10--------6---------5------------------------------------|
A|-------------------------------------------------------------------|
E|-------------------------------------------------------------------|

Chorus
e|------------------------------------------------------------------|
B|--------3---------5---------1----------8--------------------------|
G|------4---4-----6---6-----2---2------9---9------------------------|
D|----5---------7---------3---------10------------------------------|
A|------------------------------------------------------------------|
E|------------------------------------------------------------------|

Bridge (Strum)
e|------------------------------------------------------------------|
B|------------------------------------------------------------------|
G|----9----7----5---------------------------------------------------|
D|----9----7----5--x3-end with----5---7---9-------------------------|
A|----7----5----3-----------------5---7---9-------------------------|
E|--------------------------------3---5---7-------------------------|

Interlude
e|------------------------------------------------------------|
B|------------------------------------------------------------|
G|-------------------0------2--2-0-2-2h0----------------------|
D|----------0------2---2--3-----------------------------------|   X2
A|--------2---2--3--------------------------------------------|
E|------3-----------------------------------------------------|

Then Finish with the Chorus

| /  slide up
| \  slide down
| h  hammer-on
| p  pull-off
| ~  vibrato
| +  harmonic
| x  Mute note
===============================================================================
Tap to rate this tab
 
# A B C D E F G H I J K L M N O P Q R S T U V W X Y Z