Song name
# A B C D E F G H I J K L M N O P Q R S T U V W X Y Z

Supernova - Chewbacca Song tab

Help us improve GuitareTab! Take a short survey!
This is just a different way of playing the song. I think this way is easier. This is a 
song but the guitar is great so I tabbed it.
Enjoy!

Intro:
e|-----------------------------------------------------|
B|-10-------/11-10-11-/13-------\11-10-----/11-10-8-7--|
G|-----------------------------------------------------|
D|-----------------------------------------------------|
A|-----------------------------------------------------|
E|-----------------------------------------------------|

Riff 1:
e|-----------------------------------------------------|
B|-----------------------------------------------------|
G|-----------------------------------------------------|
D|-----------------------------------------------------|
A|-----------------------------------------------------|
E|-12-12p11-/13-12-6-6-6-88h9-9-8-8--6-6-6-88h9-9-8-8--|

e|-----------------------------------------------------|
B|-----------------------------------------------------|
G|-----------------------------------------------------|
D|-----------------------------------------------------|
A|-----------------------------------------------------|
E|-6-6-6-88h9-9-8-8------------------------------------|

Riff 2:
e|-----------------|
B|-----------------|
G|-----------------|
D|-----------------|
A|-----------------|
E|-12-12p11-13-12--|

Riff 3:
e|-----------------|
B|-----------------|
G|-----------------|
D|-----------------|
A|-----------------|
E|-12-11-13-12-----|

Ending:
e|-----------------|
B|-----------------|
G|-----------------|
D|-----------------|
A|-----------------|
E|-13--------------|

Order:
Intro (x1)
Riff 1 (x4)
Riff 2 (x4)
Riff 3 (x4)
Ending (x1)

There ya go. Real simple but also really fun to play!
Comment and message to give feedback.  Peace!
Related for Chewbacca Song tab