Song name
# A B C D E F G H I J K L M N O P Q R S T U V W X Y Z

Superpunk - Bleib Deinen Freunden Treu tab

Artist: Superpunk
Title: Bleib Deinen Freunden treu
Album: Koennen Sie das gro machen, bitte?!
Artist's website: www.superpunk.de

Tabbed by: Felix Huesken
eMail: the-1@gmx.net


Play powerchords with mild distortion.

Intro/Bridge:

e|----------------------------------------------------------|
B|----------------------------------------------------------|
G|-----------------------------------------9-11-9-9---------|
D|-----11-9-11----------------------9-9-11------------------|
A|---7----------9---11-9-9---7-9-11-------------------------|
E|----------------------------------------------------------|

e|----------------------------------------------------------|
B|-------14-12-14------------------------12-12-14-----------|
G|----9------------9--11--13-13--9-11-13----------9-11-9-9--|
D|----------------------------------------------------------|
A|----------------------------------------------------------|
E|----------------------------------------------------------|


-Verse:

E                 F#
  hoffnung und verzweiflung
B               E
  in der ganzen stadt
E                  F#
  doch du bist ein reiches mdchen
B                 E
  wenn du freunde hast:

sie kennen deinen namen,
wenn niemand sonst ihn kennt
sie bleiben an deiner seite stehn,
wenn jeder andere von dir rennt


-Chorus:

    F#          G#
sie lassen dich nicht im stich
        A                   B
und sie schmen sich deiner nicht
        G#           B        E    <- I'm not 100% sure on this line
deshalb bleib deinen freunden treu
   F#            G#
es gibt gengend leute
    A               B
die es zu vergessen lohnt

-Bridge


-Verse:

wenn dich die angst dich erdrckt
kannst du stets zu ihnen gehn
und die furcht fllt von dir ab
wie ein panzer aus altem lehm

sie kennen deinen namen,
wenn niemand sonst ihn kennt
sie bleiben an deiner seite stehn,
wenn jeder andere von dir rennt


-Chorus:

sie lassen dich nicht im stich
und sie schmen sich deiner nicht
deshalb bleib deinen freunden treu
es gibt gengend leute
die es zu vergessen lohnt


-Piano part:

e|----------------------------------------------------------|
B|----------------------------------------------------------|
G|----------------------------------------------------------|
D|----9--7------7--9-9-7----7------9--7------7--9-----------|
A|----------11-----------11----11--------11-----------------|
E|----------------------------------------------------------|


-Chorus:

sie lassen dich nich im stich
und sie sie schmen sich deiner nich
deshalb bleib deinen freunden treu
es gibt gengend leute die es zu vergessen lohnt


-Bridge (slower)

-Piano ending (dramatically):

e|----------------------------------------------------------|
B|----------------------------------------------------------|
G|----------------------------------------------------------|
D|----9--7------7--9-9-7----7------9--7------7--------------|
A|----------11-----------11----11--------11-----7-----------|
E|----------------------------------------------------------|


That's it, have fun!

Send corrections or comments to the-1@gmx.net
Tap to rate this tab
# A B C D E F G H I J K L M N O P Q R S T U V W X Y Z