Song name
# A B C D E F G H I J K L M N O P Q R S T U V W X Y Z

Superpunk - Ich Mag Den Mann Nicht Der Ich Bin tab

Highlighted       Show chord diagrams
From the album: "Einmal SUPERPUNK, bitte!"

You can find the Intro/Verse and Solo riffs for the second guitar on the bottom.


Intro:

D  A   ---> 6 mal

F G  D ---> 2 mal



Verse 1:

D                             A
Jeden Tag muss ich mich schämen
D                                   A
und jeder kann meinen Platz einnehmen
D                                     A
ich lass' keinen Eindruck auf irgendwen
D                                A
und tausend Ängste die mich quälen

F G  D ---> 2 mal


Verse 2: (Begleitung wie Strophe 1)

Und ich mach nicht mehr viel her
und ich trinke alles leer
ich meine Ziele nicht erreich'
und ein Tag dem andern gleicht


Prechorus:


Du kannst mich nicht lieben, Baby!
Du kannst mich nicht lieben, Baby!


Chorus:
     G                                 D
Denn ich mag den Mann nicht, der ich bin!
Ich mag den Mann nicht, der ich bin!
Ich mag den Mann nicht, der ich bin!
Ich mag den Mann nicht, der ich bin!!!

F G   D  ---> 4 mal


Pastchorus:

Und nun, da Du die Warheit kennst, möchtest Du mich nicht mehr sehn'!
Und nun, da Du die Warheit kennst, möchtest Du mich nicht mehr sehn'!!!


Interlude 1

D  A


Verse 3: (Begleitung wie üblich)

Und ich bin dunkel wie die Nacht
weil ich nicht mehr weiter mag
weil ich die Pill'n vergessen hab
und ich den Scheiß nicht mehr ertrag'


[Prechorus]

[Chorus]

[Pastchorus]

[Chorus]

Interlude 2 /Solo

[Chorus]




Guitar 2 - Intro and Verse:

  D                      A
e|----------------------|------------------|
h|----------------------|------------------|
g|-----2-----4---2------|------------------|
D|--4----4-----------4--|---------4---2----|
A|----------------------|--2---4--------4--|
E|----------------------|------------------|


Solo:

e|-----------------------------|--------------------------|
h|-----------------------------|--7--7--------------------|
g|------7-------------------7--|--------9--7-----------7--| -----\  2 mal
D|--9--------9--7-----7--9-----|--------------9--7--9-----| -----/
A|-----------------9-----------|--------------------------|
E|-----------------------------|--------------------------|

e|----------------------------------------|
h|------7------7-----7-------7------------|
g|--9B-----9B----9B------9------9--7------| -----\  until the ending
D|------------------------------------9---| -----/
A|----------------------------------------|
E|----------------------------------------|
Tap to rate this tab
 
# A B C D E F G H I J K L M N O P Q R S T U V W X Y Z