Song name
# A B C D E F G H I J K L M N O P Q R S T U V W X Y Z

Supershirt - Tote Tiere tab

Superhirt / Captain Capa - Tote Tiere


INTRO & OUTRO

E---------------------------------------------------------------------------|
H---------------------------------------------------------------------------|
G---10--12----10------10--12/14--12-10-----10--12----10------------------10-|
D-12--12----12------12--12---------------12--12----12-----10-10-10-10-10----|
A---------------------------------------------------------------------------|
E---------------------------------------------------------------------------|


E----------------------------------------------------------------------------|
H----------------------------------------------------------------------------|
G---10--12----10----10--12/14--12-10----10--12----10-----------10------------|
D-12--12----12----12--12--------------12--12----12-----10(x13)---(12---------|im Outro
A----------------------------------------------------------------------------|
E----------------------------------------------------------------------------|


REFRAIN

E------------------------------------------|
H------------------------------------------|
G-7--------1010-12------1010---15----1414--|
D-x-(x14)--x-x--x-(x6)--x-x----x-(x6)-x-x--| x4
A-5--------8-8--10------8-8----13----1212--|
E------------------------------------------|

INTERLUDE

E-----------------------|
H----------------10-----|
G----10----10-------10--|
D-12----12----12--------| x3
A-----------------------|
E-----------------------|

E-----------------------|
H----------------11-10--|
G----10----10-----------|
D-12----12----12--------|
A-----------------------|
E-----------------------|

E-----------------------|
H----------------10-----|
G----10----10-------10--|
D-12----12----12--------| x3
A-----------------------|
E-----------------------|

E-----------------------|
H----------------11-10--|
G----10----10-----------|
D-12----12----12--------| x2
A-----------------------|
E-----------------------|

E-------------------------------------|
H----------------11-10-11-10-11-10-11-|........
G----10----10-------------------------|
D-12----12----12----------------------|
A-------------------------------------|
E-------------------------------------|
Tap to rate this tab
 
# A B C D E F G H I J K L M N O P Q R S T U V W X Y Z